» » »

Ten Foot Pole, Daddy Tabs (ver.1)

Artists:  A B C D E F G H I J K L M N O P Q R S T U V W X Y Z # 

Daddy Tabs (ver.1)

Ten Foot Pole Tabs
Rating:
0/5 (0 votes)
Daddy lessons Tabs too difficult? Try these video lessons and learn fast
                   -----------------------------------------------------------------------------


    intro (2x)
   e|--------------------------------------------------------------------|
   B|--------------------------------------------------------------------|
   G|--------------------------------------------------------------------|
   D|---8--8--8--8--8--8--8--8--8---4--4--4--4--4--4--4--4--4------------|
   A|---8--8--8--8--8--8--8--8--8---4--4--4--4--4--4--4--4--4------------|
   E|---6--6--6--6--6--6--6--6--6---2--2--2--2--2--2--2--2--2------------|

   e|---4--4--4--4--4--4--4--4--4----------------------------------------|
   B|---4--4--4--4--4--4--4--4--4----------------------------------------|
   G|---6--6--6--6--6--6--6--6--6----------------------------------------|
   D|---6--6--6--6--6--6--6--6--6---6------------------------------------|
   A|---4--4--4--4--4--4--4--4--4---6------------------------------------|
   E|-------------------------------4-let ring---------------------------|


    pre-chorus
    palm mute -------------------->------------------------------------->
   e|--------------------------------------------------------------------|
   B|--------------------------------------------------------------------|
   G|--------------------------------------------------------------------|
   D|---8--8--8--8--8--8--8--8--8---4--4--4--4--4--4--4--4--4------------|
   A|---8--8--8--8--8--8--8--8--8---4--4--4--4--4--4--4--4--4------------|
   E|---6--6--6--6--6--6--6--6--6---2--2--2--2--2--2--2--2--2------------|


   ------------------------>
   e|---------------------------0----------------------------------------|
   B|---------------------------1----------------------------------------|
   G|---------------------------0----------------------------------------|
   D|---3--3--3--3--3--3--3---2------------------------------------------|
   A|---3--3--3--3--3--3--3---2------------------------------------------|
   E|---1--1--1--1--1--1--1---0------------------------------------------|

    chorus
   e|--------------------------------------------------------------------|
   B|--------------------------------------------------------------------|
   G|---6-----------------------4--4--4--4--4--4--4----------------------|
   D|---6------------6----------4--4--4--4--4--4--4--4--4--4--4--4--4--4-|
   A|---4------------6-------9/-2--2--2--2--2--2--2--4--4--4--4--4--4--4-|
   E|----------------4-------------------------------2--2--2--2--2--2--2-|

   e|--------------------------------------------------------------------|
   B|--------------------------------------------------------------------|
   G|---6---6-----------6---5------4--4--4--4--4-------------------------|
   D|---6------6---6-----------6---4--4--4--4--4---4--4--4--4--4---------|
   A|---4----------6---------------2--2--2--2--2---4--4--4--4--4---------|
   E|--------------4-------------------------------2--2--2--2--2---------|

    solo (2x)
   e|--------------------------------------------------------------------|
   B|--------------------------------------------------------------------|
   G|--------------------------------------------------------------------|
   D|-----8---8---8---6---6---6---4---4---4---3---3---3------------------|
   A|-----------------------------------------------------6---6---6------|
   E|--------------------------------------------------------------------|

   e|--------------------------------------------------------------------|
   B|--------------------------------------------------------------------|
   G|--------------------------------------------------------------------|
   D|--------------------------------------------------------------------|
   A|----4---4---6---4---6---4-------------------------------------------|
   E|----------------------------6---4-----------------------------------|

   =============================================================================
            
Submit corrections

comments powered by Disqus
↑ Back to top | Ten Foot Pole Tabs for Daddy. Lyrics for acoustic guitar and electric guitar. Tablatures and chords are parodies/interpretations of the original songs. You may use it for private study, scholarship, research or language learning purposes only