» » »

Armchair Quaterback Tabs (ver.1)

Artists:  A B C D E F G H I J K L M N O P Q R S T U V W X Y Z # 

Armchair Quaterback Tabs (ver.1)

Ten Foot Pole
Rating:
0/5 (0 votes)

Hard to play? Try these video lessons and learn fast.
                HeterophobicTWAT

Intro:
e|----------|
b|----------|
G|-9999-9-8-|
D|-9999-9-8-|(x8)
A|-7777-7-6-|
E|----------|

Verse:
e|-----------------|
b|-----------------|
G|-6-------------9-|
D|-6--let ring---9-|
A|-4-------------7-|
E|-----------------|

Chorus:
e|-----------------------------------------|
b|-----------------------------------------|
G|-----------6-6-66-66-----------4-4-44-44-|
D|-7-7-77-77-6-6-66-66-2-2-22-22-4-4-44-44-|(x3)
A|-7-7-77-77-4-4-44-44-2-2-22-22-2-2-22-22-|
E|-5-5-55-55-----------0-0-00-00-----------|

Intro (x4)

Verse2:
e|--------------------------------|
b|--------------------------------|
G|-6-------------9-99999999999999-|
D|-6--let ring---9-99999999999999-|
A|-4-------------7-77777777777777-|
E|--------------------------------|
		   P.M...........

e|-----------------------------------------------------|
b|-----------------------------------------------------|
G|-66-6-66-6-66-6-66-6-9-99999999999999-66-6-66-6-6666-|
D|---------------------9-99999999999999-----------6666-|
A|-44-4-44-4-44-4-44-4-7-77777777777777-44-4-44-4-4444-|
E|-----------------------------------------------------|
   PM	..   ..	  ..     .............. ..   ..

Chorus (x3)

Interlude:
e|--------------|
b|--------------|
G|--------------|
D|--------------|
A|-----4-6-16\4-|
E|-5-7----------|

e|-----------|    |---|
b|-----5-----|    |---|
G|-------6---|(x6)|---|
D|---6-------|    |---|
A|-4---------|    |---|
E|-----------|    |-2-|

e|--------------------------------------------------|
b|--------------------------------------------------|
G|--------6-X-6--------4-X-4---------6-X-6--------4-|
D|-7777-7-4-X-4-2222-2-2-X-2--7777-7-4-X-4-2222-2-2-|
A|-7777-7-4-X-4-2222-2-2-X-2--7777-7-4-X-4-2222-2-2-|
E|-5555-5-------0000-0--------5555-5-------0000-0---|
   P.M.         ....          ....         ....

e|-------------------------------------|
b|-------------------------------------|
G|----------66666666----------44444444-|
D|-77777777-66666666-22222222-44444444-|(x2)
A|-77777777-44444444-22222222-22222222-|
E|-55555555----------00000000----------|
   P.M..... ........ ........ ........

Chorus until end
            
Hard to play? Try these video lessons and learn fast. | Correct




comments powered by Disqus
↑ Back to top | Tablatures and chords are parodies/interpretations of the original songs. You may use it for private study, scholarship, research or language learning purposes only