» » »

Tenacious D, Wonderboy Fullycorrect Tabs (ver.1)

Artists:  A B C D E F G H I J K L M N O P Q R S T U V W X Y Z # 

Wonderboy Fullycorrect Tabs (ver.1)

Tenacious D Tabs
Rating:
0/5 (0 votes)
Hard to play? Try these video lessons and learn fast.
                WONDERBOY by TENACIOUS D, tabbed out by ERIC
Intro and Verses
e|---2-----3h2---------1h0-----1p0-------------------|
B|-----3-------3----2------3-------3---3-------------|
G|-------2-------2----3-------3-------3--------------|
D|-0-------------------------------------------------|
A|---------------------------------------------------|
e|---------------------------------------------------|

Guitar 2 (come in after the above is played twice)
e|---5--6--8-----------------------------------------|
B|---7--8--10----------------------------------------|
G|---------------------------------------------------|
D|---------------------------------------------------|
A|---------------------------------------------------|
E|---------------------------------------------------|
(Let each chord ring a bit, and slide to each new one)
	
Chorus (2 ways, power-chords and chords) power chords:
e|----------------------------------------------------|
B|----------------------------------------------------|
G|---7--7---------------------------------------------|
D|---7--7--9--7--5--7--0------------------------------|
A|---5--4--9--7--5--7--0------------------------------|
E|---------7--5--3--5---------------------------------|

Chorus (chords)
     D  ?  ?  ?  G  A  D
e|---2--2--x--x--3-----2-----------------------------|
B|---3--3--3--3--0--2--3-----------------------------|
G|---2--2--2--2--0--2--2-----------------------------|
D|---0--0--0--0--0--2--0-----------------------------|
A|------4--2--0--2--0--------------------------------|
E|---------------3-----------------------------------|

What powers do ask...?
     D  ?  ?  ?  G  ?  Em 
e|---2--2--x--x--3--x--0--x--3--x--------------------|
B|---3--3--3--3--0--x--0--x--0--2--------------------|
G|---2--2--2--2--0--3--0--3--0--2--------------------|
D|---0--0--0--0--0--4--2--4--0--2--------------------|
A|---x--4--2--0--2--4--2--4--2--0--------------------|
E|---x--x--x--x--3--2--0--2--3--x--------------------|

After this ^ (Big Guitar Fill)
e|---13bend^14--10-----------------------------------|
B|---------------11-10-8-11--------------------------|
G|---------------------------------------------------|
D|--------------------------0------------------------|
A|--------------------------0------------------------|
E|---------------------------------------------------|

e|---------------------------------------------------|
B|---------------------------------------------------|
G|---------------------------------------------------|
D|---------------------------------------------------|
A|---------------------------------------------------|
E|---------------------------------------------------|
2:22 (Electric guitar Fill in unison) Guitar 1
e|---------------------------------------------------|
B|---12 slide ->15-----------------------------------|
G|---------------------------------------------------|
D|---------------------------------------------------|
A|---------------------------------------------------|
E|---------------------------------------------------|

2:22 Guitar 2
e|---------------------------------------------------|
B|---------------------------------------------------|
G|---12 slide ->11-----------------------------------|
D|---------------------------------------------------|
A|---------------------------------------------------|
E|---------------------------------------------------|

Part after Chorus before solo
     C  G  D
e|---0--3--2-----------------------------------------|
B|---1--0--3-----------------------------------------|
G|---0--0--2-----------------------------------------|
D|---2--0--0-----------------------------------------|
A|---3--2--------------------------------------------|
E|------3--------------------------------------------|

Solo                                                Repeat this         
e|---10--10--10--10--12-12bend^--10-------------------15hit14...------|
B|-----10--10--10------------------10-10bend^--8--11------------------|
G|--------------------------------------------------------------------|
D|--------------------------------------------------------------------|
A|--------------------------------------------------------------------|
E|--------------------------------------------------------------------|

Solo cont. OK this is a really fast part, I have one thing that sounds like it, and another that KG plays on THE COMPLETE MASTER WORKS
Version 1: (play really fast)
e|---17-15-14-15-14-12-14-12-10-12-8-10-8-6-8bend^--|
B|---------------------------------------------------|
G|---------------------------------------------------|
D|---------------------------------------------------|
A|---------------------------------------------------|
E|---------------------------------------------------|

Version 2:
E|---17bend^-17-17-----------------------------------|
B|---------------------------------------------------|
G|---------------------------------------------------|
D|---------------------------------------------------|
A|---------------------------------------------------|
E|---------------------------------------------------|
Solo Cont
e|---------------------------------------------------|
B|---7-7-5-5-3-5-7--7-5-5-3-5-3----------------------|
G|-----------------------------6-4-2-4-4-2-4-6-4-6-7-|
D|---------------------------------------------------|
A|---------------------------------------------------|
That’s the end of the solo.  I haven’t seen one tab that has correctly written it.  I guarantee it’s at least 99% correct.

Ending:
Verse and Chorus once THEN:

Now ohh take my hand... played 4 times
E|--3--2--0--2--3--2--0--2--1--1--1--3--1------------|
B|--3--3--3--3--2--3--3--3--3--3--3--5--3------------|
G|--2--2--2--2--3--2--2--2--3--3--3--5--3------------|
D|---------------------------------------------------|
A|---------------------------------------------------|
E|---------------------------------------------------|

After:
e|---------------------------------------------------|
B|---------------------------------------------------|
G|---2-3-5-3-----------------------------------------|
D|---4-5-7-5-----------------------------------------|
A|---------------------------------------------------|
E|---------------------------------------------------|
             Repeat twice and end on
    D!! let it ring out
E|---2-----------------------------------------------|
B|---3-----------------------------------------------|
G|---2-----------------------------------------------|
D|---0-----------------------------------------------|
A|---------------------------------------------------|
E|---------------------------------------------------|

THERE, THIS IS THE FIRST EVER VERY VERY CLOSE TO PERFECTION TAB OF WONDERBOY
            

comments powered by Disqus
↑ Back to top | Tenacious D Tabs for Wonderboy Fullycorrect. Lyrics for acoustic guitar and electric guitar. Tablatures and chords are parodies/interpretations of the original songs. You may use it for private study, scholarship, research or language learning purposes only