>
 >
Who Medley Live

Who Medley Live Guitar Tabs

Tenacious D - Who Medley Live chords, tabs, tablatures, lyrics

Guitar lessons | Add/correct | Request | Top 50 tabs Artists:  A B C D E F G H I J K L M N O P Q R S T U V W X Y Z 0-9

Who Medley Live Guitar Tabs – Tenacious D

CD, Sheet music, Poster

Do you like Who Medley Live? Share with your friends now
Tabs
[intro]
 Bm/F#             Bmsus4/F#         F#7sus4           
  e e e e e e e e   e e e e e e e e   e e e e e e e e  
|-2---------------|-0---------------|-0---------------|
|-3---------------|-3---------------|-2---------------|
|-4---------------|-4---------------|-4---------------|
|-4-4-4-4-4-4-4-4-|-4-4-4-4-4-4-4-4-|-4-4-4-4-4-4-4-4-|
|-----------------|-----------------|-----------------|
|-----------------|-----------------|-----------------|

 F#7                   F#m7              Em/F#             
  e e e e e e e e       e e e e e e e e   e e e e e e e e  
|-0-------------------|-0---------------|-0---------------|
|-2-------------------|-2---------------|-0---------------|
|-3-------------------|-2---------------|-0---------------|
|-4-4-4-4-4-4-4-4-----|-4-4-4-4-4-4-4-4-|-4-4-4-4-4-4-4-4-|
|---------------------|-----------------|-----------------|
|---------------------|-----------------|-----------------|

  Em/G             F#sus4                 F#                 
  e e e e e e e e   e s s e s e s e e e   e s s e s e s e q  
|-----------------|---------------------|-------------------|
|-0-0-0-0-0-0-0-0-|-2-2-2-2-2-2-2-2-2-2-|-2-2-2-2-2-2-2-2---|
|-4-4-4-4-4-4-4-4-|-3-3-3-3-3-3-3-3-3-3-|-3-3-3-3-3-3-3-3---|
|-5-5-5-5-5-5-5-5-|-4-4-4-4-4-4-4-4-4-4-|-4-4-4-4-4-4-4-4-0-|
|-----------------|---------------------|-------------------|
|-----------------|T2-------------------|-2-----------------|

   Bsus4                   B        
   e s s e s e s e e s s   e s s e s e s e e s s x2
||-----------------------|-----------------------||
||-7-7-7-7-7-7-7-7-7-7-7-|-7-7-7-7-7-7-7-7-7-7-7-||
||-9-9-9-9-9-9-9-9-9-9-9-|-8-8-8-8-8-8-8-8-8-8-8-||
||-9-9-9-9-9-9-9-9-9-9-9-|-9-9-9-9-9-9-9-9-9-9-9-||
||-----------------------|-----------------------||
||T7-7-7-7-7-7-7-7-7-7-7-|-7-7-7-7-7-7-7-7-7-7-7-||

   Bsus4                   B
   e s s e s e s e e s s   e s s e s e s e e s s x2
||-----------------------|-----------------------||
||-7-7-7-7-7-7-7-7-7-7-7-|-7-7-7-7-7-7-7-7-7-7-7-||
||-9-9-9-9-9-9-9-9-9-9-9-|-8-8-8-8-8-8-8-8-8-8-8-||
||-9-9-9-9-9-9-9-9-9-9-9-|-9-9-9-9-9-9-9-9-9-9-9-||
||-----------------------|-----------------------||
||-7-7-7-7-7-7-7-7-7-7-7-|-7-7-7-7-7-7-7-7-7-7-7-||





Comments


Popular Tenacious D tabs & chords
Fuck Her Gently 2 Bass Tabs
Pick Of Destiny Chords
Friendship 2 Tabs
Keilbasa Sausage Tabs
Kickapoo 1 Tabs
Roadie 1 Tabs
Rock Your Socks Off 2 Tabs
Wonderboy Fullycorrect Tabs
Fuck Her Softly Ukulele
He Teaches Me Ukulele


Song lyrics



↑ Back to top | Tablatures and chords are parodies/interpretations of the original songs. You may use it for private study, scholarship, research or language learning purposes only
© 2014 AZChords.com Contact us | Privacy policy | DMCA | Add/correct tabs | Request tabs | Top 50 tabs