» » »

Tenacious D, Road Tabs (ver.1)

Artists:  A B C D E F G H I J K L M N O P Q R S T U V W X Y Z # 

Road Tabs (ver.1)

Tenacious D Tabs
 Rating:
4/5 (4 votes)
Road lessons Tabs too difficult? Try these video lessons and learn fast
                PROPS GO TO: zupertone

This is the song during the credits at the end of the episode "Road Gig"

h- Hammer on

Am                        Dm(no3)-hD-hDsus-D
    I met a tasty baby in Michigan

Am                              Dm(no3)hD-hDsus-D
    We screwed two times then I left

Am                                  Dm(no3)-hD-hDsus-D
    Sometimes I think of my baby in Michigan

            G                     D                    Cadd9
Why can't I stay in one place for more than two days...why?

F              C                 G
   Because I'm talking about the road

Ending
   
   Asus                                              Am
e|---------------------------------------------------0---|
b|---------------------------------------------------1---|
g|-------4--------4--------4--------4--------4-------2---|
d|----2--------2--------2--------2--------2----------2---|
a|-0--------0--------0--------0--------0--------0----0---|
E|---------------------------------------------------0---|

Am------002210
Dm(no3)-000230
D-------000232
Dsus----000233
G-------320033
Cadd9---032033
F-------133211
C-------032010
            
Submit corrections

comments powered by Disqus
↑ Back to top | Tenacious D Tabs for Road. Lyrics for acoustic guitar and electric guitar. Tablatures and chords are parodies/interpretations of the original songs. You may use it for private study, scholarship, research or language learning purposes only