» » »

Roadie Tabs (ver.2)

Artists:  A B C D E F G H I J K L M N O P Q R S T U V W X Y Z # 

Roadie Tabs (ver.2)

Tenacious D
Rating:
0/5 (0 votes)

Hard to play? Try these video lessons and learn fast.
                Hi, my name's Drew. I am a hardcore D fan and I'm 99% sure I got this right. Sounds
perfect to me, but hey, y'all may know something I don't. Anyway, I love this song, and if
you're here, I hope you do too. It's in standard tuning, and here are the chords that 
you will be using that I didn't tab below:

  C/G     Asus2     E
|--0--------0-------0--|
|--0--------0-------0--|
|--0--------2-------1--|
|--2--------2-------2--|
|--3--------0-------2--|
|--3-------(0)------0--|

Riff 1:
|-------------------------------------------------------------------|
|-------------------------------------------------------------------|
|-4-x-4-xx2-x-0--4-x-4-xx-2-x-0-xx-2-x-2-x2x2x-2-xx1-x-1-x1x1x-1-xx-|
|-2-x-2-xx2-x-2--2-x-2-xx-2-x-2-xx-4-x-4-x4x4x-4-xx2-x-2-x2x2x-2-xx-|
|-2-x-2-xx2-x-2--2-x-2-xx-2-x-2-xx-0-x-0-x0x0x-0-xx2-x-2-x2x2x-2-xx-|
|-0-x-0-xx0-x-0--0-x-0-xx-0-x-0-xx-0-x-0-x0x0x-0-xx0-x-0-x0x0x-0-xx-|

Riff 2:
|------------------------------------------------------------------|
|------------------------------------------------------------------|
|-4-x-4-xx2-x-0--4-2-0-2-0-x-0-xx-2-x-2-x2x2x-2-xx1-x-1-x1x1x-1-xx-|
|-2-x-2-xx2-x-2--2-2-2-2-2-x-2-xx-4-x-4-x4x4x-4-xx2-x-2-x2x2x-2-xx-|
|-2-x-2-xx2-x-2--2-2-2-2-2-x-2-xx-0-x-0-x0x0x-0-xx2-x-2-x2x2x-2-xx-|
|-0-x-0-xx0-x-0--0-0-0-0-0-x-0-xx-0-x-0-x0x0x-0-xx0-x-0-x0x0x-0-xx-|

Riff 3:
C/G //// Asus2 //// E //// ////

Riff 4:
C/G //// Asus2 //// C/G //// Asus2 //// C/G //// Asus2 //// E //// ////


Order of song:
Riff 1
Riff 2
Riff 2
Riff 1
Riff 1
Riff 3
Riff 3
Riff 4
Riff 2
Riff 2
Riff 4
Riff 3
Riff 3
Riff 4
            
Hard to play? Try these video lessons and learn fast. | Correct




comments powered by Disqus
↑ Back to top | Tablatures and chords are parodies/interpretations of the original songs. You may use it for private study, scholarship, research or language learning purposes only