» » »

Pick Of Destiny Bass tabs (ver.1)

Artists:  A B C D E F G H I J K L M N O P Q R S T U V W X Y Z # 

Pick Of Destiny Bass tabs (ver.1)

Tenacious D
Rating:
0/5 (0 votes)

Tabs too difficult? Try these video lessons and learn fast.
                                           THE PICK OF DESTINY (P.O.D) 
                           As recorded by Tenacious D
                      (From the 2006 Album PICK OF DESTINY)

Words and Music by Jack Black and Kyle Gass

 Intro/Chorus
  Q=130
          $
 4/4
  Gtr I
|---------||---------------|-----------------|
|---------||o--------------|-----------------|
|---------||o---0----0-x-x-|-0-----0-3-2-0---|
|---------||-------3-------|---0-3---------3-|


                           To Coda
|-----------------|------------------||
|-----------------|-----------------o||
|-----------------|-----------------o||
|-1-1-1-1-1-1-1-1-|-3-3-3-3-3-3-3-3--||


   Verse
||------------------|-------------------|
||o-----------------|-------------------|
||o-0-0-0-0-0-0-0-0-|-0-0-0-------------|
||------------------|-------3-(3)-3-3-3-|


                                        3x
|-----------------|---------------------||
|-----------------|--------------------o||
|-----------------|--------------------o||
|-1-1-1-1-1-1-1-1-|-3-3-3-3-(3)-3-3-3---||


                                                            D.S. al Coda
|-----------------|-------------------|-----------------|-----------------|
|-----------------|-------------------|-----------------|-----------------|
|-0-0-0-0-0-0-0-0-|-0-0-0-------------|-----------------|-----------------|
|-----------------|-------3-(3)-3-3-3-|-1-1-1-1-1-1-1-1-|-3-3-3-3-3-3-3-3-|


 Interlude
  &
|-----------------|-----------------|-----------------|-----------------|
|-----------------|-----------------|-----------------|-----------------|
|-----------------|-----------------|-----------------|-----------------|
|-1-1-1-1-1-1-1-1-|-3-3-3-3-3-3-3-3-|-1-1-1-1-1-1-1-1-|-3-3-3-3-3-3-3-3-|


|-----------------|-----------------|-----------------|-------------|
|-----------------|-----------------|-----------------|-------------|
|-----------------|-----------------|-0-x-------------|-------------|
|-1-1-1-1-1-1-1-1-|-3-3-3-3-3-3-3-3-|-----3-x-1-x-3-x-|-0-0-x-0-----|


 Verse 2
|----------|-------------|----------|-------------|
|----------|-------------|----------|-------------|
|-5--------|-7---8--7-5--|----------|-------------|
|----------|-------------|-5--------|-7---8--7-5--|


|-----------------|-----------------|
|-----------------|-----------------|
|-3-3-3-3-3-3-3-3-|-----------------|
|-----------------|-3-3-3-3-3-3-3-3-|


   Chorus
||---------------|-----------------|-----------------|-------------------||
||o--------------|-----------------|-----------------|------------------o||
||o---0----0-x-x-|-0-----0-3-2-0---|-----------------|------------------o||
||-------3-------|---0-3---------3-|-1-1-1-1-1-1-1-1-|-3-3-3-3-3-3-3-3---||


 Interlude 2
|-----------------|-----------------|-----------------|-----------------|
|-----------------|-----------------|-----------------|-----------------|
|-----------------|-----------------|-----------------|-----------------|
|-1-1-1-1-1-1-1-1-|-3-3-3-3-3-3-3-3-|-1-1-1-1-1-1-1-1-|-3-3-3-3-3-3-3-3-|


|-----------------|-----------------|
|-----------------|-----------------|
|-----------------|-----------------|
|-1-1-1-1-1-1-1-1-|-3-3-3-3-3-3-3-3-|


   Solo
||------------------|-----------------|-----------------|-------------------||
||o-----------------|-----------------|-----------------|------------------o||
||o-0-0-0-0-0-0-0-0-|-0-0-0-0-0-0-0---|-----------------|------------------o||
||------------------|---------------3-|-1-1-1-1-1-1-1-1-|-3-3-3-3-3-3-3-3---||


 Final Interlude
|-----------------|-----------------|-----------------|-----------------|
|-----------------|-----------------|-----------------|-----------------|
|-----------------|-----------------|-----------------|-----------------|
|-1-1-1-1-1-1-1-1-|-3-3-3-3-3-3-3-3-|-1-1-1-1-1-1-1-1-|-3-3-3-3-3-3-3-3-|


|-----------------|-----------------|
|-----------------|-----------------|
|-----------------|-----------------|
|-1-1-1-1-1-1-1-1-|-3-3-3-3-3-3-3-3-|


 Outro
|-----------------|----------|-----------------|----------|--------*|
|-----------------|----------|-----------------|----------|--------*|
|-----3-x---------|-0--------|-----3-x---------|-0--------|-(0)----*|
|-1-x-----3-x-0-x-|----------|-1-x-----3-x-0-x-|----------|--------*|


Im Guessing this is a possible bass line for the song.....

Sounds okay.

Thanks
            
Tabs too difficult? Try these video lessons and learn fast.




comments powered by Disqus
↑ Back to top | Tablatures and chords are parodies/interpretations of the original songs. You may use it for private study, scholarship, research or language learning purposes only