» » »

Metal Tabs (ver.7)

Artists:  A B C D E F G H I J K L M N O P Q R S T U V W X Y Z # 

Metal Tabs (ver.7)

Tenacious D
Rating:
0/5 (0 votes)

Tabs too difficult? Try these video lessons and learn fast.
                "(6)
----------------------------------------------------------------------------
----------------------------------------------------------------------------


Tuning: EADGBe

e|-------------------------------------------------------------------------|
B|-------------------------------------------------------------------------|
G|-------------------------------------------------------------------------|
D|-------------------------------------------------------------------------|
A|---------------3-2-0-2-0-2-3-2-0---------------3-2-0-2-------------------|
E|-0---0-0-3-0-0-------------------0---0-0-3-0-0---------------------------|
  

e|-------------------------------------------------------------------------|
B|-------------------------------------------------------------------------|
G|-----------------------------------------0-------------------------------|
D|-------------------------------------------3-2-3-2-0-2-0-2-3-2-0---------|
A|---------------3-2-0-2-0-2-3-2-0-------3---------------------------------|
E|-0---0-0-3-0-0-------------------1---1-----------------------------------|
 


e|-------------------------------------------------------------------------|
B|-------------------------------------------------------------------------|
G|-------------------------------------------------------------------------|
D|-------------------------------------------------------------------------|
A|---------------3-2-0-2-0-2-3-2-0---------------3-2-0-2-------------------|
E|-0---0-0-3-0-0-------------------0---0-0-3-0-0---------------------------|
  

e|-------------------------------------------------------------------------|
B|-------------------------------------------------------------------------|
G|-----------------------------------------0-------------------------------|
D|-------------------------------------------3-2-3-2-0-2-0-2-3-2-0---------|
A|---------------3-2-0-2-0-2-3-2-0-------3---------------------------------|
E|-0---0-0-3-0-0-------------------1---1-----------------------------------|


e|-------------------------------------------------------------------------|
B|-------------------------------------------------------------------------|
G|-------------------------------------------------------------------------|
D|-------------------------------------------------------------------------|
A|-------------------------------------------------------------------------|
E|-0---0-0-3-0-0-0-----------------0---0-0-3-0-0-0-------------------------|


e|-------------------------------------------------------------------------|
B|-------------------------------------------------------------------------|
G|-4-----2-----4-----2-----4---5---4-----2-----4-----2-----7---6---5-------|
D|-2-----0-----2-----0-----2---3---2-----0-----2-----0-----5---4---3-------|
A|-------------------------------------------------------------------------|
E|-------------------------------------------------------------------------|
  |Repeat_________________________________________________________________|

Then there s a slow part then you play this all over again
"            
Tabs too difficult? Try these video lessons and learn fast.


comments powered by Disqus
↑ Back to top | Tablatures and chords are parodies/interpretations of the original songs. You may use it for private study, scholarship, research or language learning purposes only