» » »

Tenacious D, Kyle Quit The Band Tabs (ver.2)

Artists:  A B C D E F G H I J K L M N O P Q R S T U V W X Y Z # 

Kyle Quit The Band Tabs (ver.2)

Tenacious D Tabs
Rating:
0/5 (0 votes)
Hard to play? Try these video lessons and learn fast.
                Tenacious D
Kyle Quit The Band

Last week, Kyle quit the band.    Now we're back together. Eh.
7--------\-5------------------x---5----------------7----      ---------|
7--------\-5------------------x---5----------------7----      ---------|
8--------\-6------------------9---6----------------8----      --8h9p8--|
9--------\-7------------------9---7----------------9----      ---------|
9--------\-7------------------7---7----------------9----      ---------|
7--------\-5------------------x---5----------------7----      ---------|

Misunderstandings.        Didn't understand.         Doesn't matter.
7-------7---7----7-7-7-7--5----------5---5--5-5-5-5--x----|
7-------7---7----7-7-7-7--5----------5---5--5-5-5-5--x----|
8-------8---8----8-8-8-8--6----------6---6--6-6-6-6--9----|
9-------9---9----9-9-9-9--7----------7---7--7-7-7-7--9----|
9-------9---9----9-9-9-9--7----------7---7--7-7-7-7--7----|
7-------7---7----7-7-7-7--5----------5---5--5-5-5-5--x----|

Now we're back together again.     Ohh La La La La La
5----------------7-x-7-x-7-----|
5----------------7-x-9-x-7-----|
6----------------8-x-9-x-8-----|
7----------------9-x-9-x-9-----|
7----------------9-x-7-x-9-----|
5----------------7-x-7-x-7-----|

Couldn't split up Kato and Nash.        That's true.
x-----------------x-----------7-x-7-x-7--|
x-----------------x-----------7-x-9-x-7--|
11----------------9-----------8-x-9-x-8--|
11----------------9-----------9-x-9-x-9--|
9-----------------7-----------9-x-7-x-9--|
x-----------------x-----------7-x-7-x-7--|

Couldn't split up Tengo and Kash.        That's also true.
x-----------------x------------7-x-7-x-7--|
x-----------------x------------7-x-9-x-7--|
11----------------9------------8-x-9-x-8--|
11----------------9------------9-x-9-x-9--|
9-----------------7------------9-x-7-x-9--|
x-----------------x------------7-x-7-x-7--|

This is our song of exultant joy cause
x----------------------7----|
x----------------------7----|
9----------------------8----|
9----------------------9----|
7----------------------9----|
x----------------------7----|

 We only came to kick some ass.
x--------x--------------------7-x-7-x-7-----|
x--------x--------------------7-x-9-x-7-----|
11-------9--------------------8-x-9-x-8-----|
11-------9--------------------9-x-9-x-9-----|
9--------7--------------------9-x-7-x-9-----|
x--------x--------------------7-x-7-x-7-----|

Rock the f**king house and kick some ass.
x----------------------x----------------7-x-7-x-7-----|
x----------------------x----------------7-x-9-x-7-----|
11---------------------9----------------8-x-9-x-8-----|
11---------------------9----------------9-x-9-x-9-----|
9----------------------7----------------9-x-7-x-9-----|
x----------------------x----------------7-x-7-x-7-----|

What we're gonna do with all the cash
x----------------x--|
x----------------x--|
11---------------9--|
11---------------9--|
9----------------7--|
x----------------x--|

              Smoke hash.            And then we thrash.
--7--7--7---7-7---------5--5--5---5--5-----------------3--3--3--3--/--5--5--x--/--7---7-7---|
--7--9--7---7-7---------5--7--5---5--5-----------------3--5--3--5--/--7--5--x--/--9---7-7---|
--8--9--8---8-8---------6--7--6---6--6-----------------4--5--4--5--/--7--6--x--/--9---8-8---|
--9--9--9---9-9---------7--7--7---7--7-----------------5--5--5--5--/--7--7--x--/--9---9-9---|
--9--7--9---9-9---------7--5--7---7--7-----------------5--3--5--3--/--5--7--x--/--7---9-9---|
--7--7--7---7-7---------5--5--5---5--5-----------------3--3--3--3--/--5--5--x--/--7---7-7---|

We'll throw a big ol' bash y'all.
---------------------------------3--3--3--3--/--5--5--x--/--7---7-7---|
---------------------------------3--5--3--5--/--7--5--x--/--9---7-7---|
---------------------------------4--5--4--5--/--7--6--x--/--9---8-8---|
---------------------------------5--5--5--5--/--7--7--x--/--9---9-9---|
---------------------------------5--3--5--3--/--5--7--x--/--7---9-9---|
---------------------------------3--3--3--3--/--5--5--x--/--7---7-7---|


And everyone is invited to the bash.
------------------------------------3--3--3--3--/--5--5--x--/--7---7-7---|
------------------------------------3--5--3--5--/--7--5--x--/--9---7-7---|
------------------------------------4--5--4--5--/--7--6--x--/--9---8-8---|
------------------------------------5--5--5--5--/--7--7--x--/--9---9-9---|
------------------------------------5--3--5--3--/--5--7--x--/--7---9-9---|
------------------------------------3--3--3--3--/--5--5--x--/--7---7-7---|

And everyone you're all invited to the baaaaaaoooooohohohoooo!
---------------------------------------3--3--3--3--/--5--5--x--/--7---7-7---|
---------------------------------------3--5--3--5--/--7--5--x--/--9---7-7---|
---------------------------------------4--5--4--5--/--7--6--x--/--9---8-8---|
---------------------------------------5--5--5--5--/--7--7--x--/--9---9-9---|
---------------------------------------5--3--5--3--/--5--7--x--/--7---9-9---|
---------------------------------------3--3--3--3--/--5--5--x--/--7---7-7---|

Come on Kyle, one time come on.
------------------------------------------------------------------------------------|
--------------------------------------------------------12----10--------------------|
---9-9-9-9-9-9-9-9-9-7------9-7-9-7-------11----11----11--9--11----9----9-----------|
-----------------------------9---------9----------------------------------12--9--12-|
------------------------------------------------------------------------------------|
------------------------------------------------------------------------------------|

Flee loo lee loo, flee loo lee loo

--------------------------------------------------10/9/7-------------10/9/7----------|
-------12--10--------------------------------------------10--7---------------10--7---|
---11-----------11--9-----9--7--9--7--------------------------9----------------------|
-------------------------------------------9-----------------------------------------|
-------------------------------------------------------------------------------------|
-------------------------------------------------------------------------------------|

--10/9/7----------10---7------10--7----------------------7----7----7------7---7---7---7---|
-----------10--7-----------10-------------------------7----7----7----7---7---7----9---7---|
-------------------------------------9---7-7--9--7--------------------------------9---8---|
----------------------------------------------------------------------------------9---9---|
----------------------------------------------------------------------------------7---9---|
----------------------------------------------------------------------------------7---7---|

The End
            

comments powered by Disqus
↑ Back to top | Tenacious D Tabs for Kyle Quit The Band. Lyrics for acoustic guitar and electric guitar. Tablatures and chords are parodies/interpretations of the original songs. You may use it for private study, scholarship, research or language learning purposes only