» » »

Kyle Quit The Band Tabs (ver.1)

Artists:  A B C D E F G H I J K L M N O P Q R S T U V W X Y Z # 

Kyle Quit The Band Tabs (ver.1)

Tenacious D
Rating:
0/5 (0 votes)

Hard to play? Try these video lessons and learn fast.
                e|------7-----------------5----------------------3-------------5--------------------------7------------------|
B|------7-----------------5----------------------3-------------5--------------------------7------------------|
G|------8-----------------6----------------------4-------------6--------------------------8--------7h8-------|
D|------9-----------------7----------------------5-------------7--------------------------9-------------9----|
A|------9-----------------7----------------------5-------------7--------------------------9------------------|
E|------7-----------------5----------------------3-------------5--------------------------7------------------|
          Last week, Kyle quit the band...                    ...and now we're back togrther...

e|------7-------------5--------------3-------------5--------------7----------------|
B|------7-------------5--------------3-------------5--------------7----------------|
G|------8-------------6--------------4-------------6--------------8----------------|
D|------9-------------7--------------5-------------7--------------9----------------|
A|------9-------------7--------------5-------------7--------------9----------------|
E|------7-------------5--------------3-------------5--------------7----------------|
     Misunderstanding...                                        ...togrther again, la la la la laa...


e|----2-----------------0----------------7---------------|
B|----2-----------------0----------------7---------------|
G|----3-----------------1----------------8---------------|
D|----4-----------------2----------------9---------------|
A|----4-----------------2----------------9---------------|
E|----2-----------------0----------------7---------------|
      Could'nt split up Kato and Nash, that's true. (reapeat)
      Could'nt split up Tango and Cash, That's also true...
      This is our song of exultant joy because, all we came to do is kick some ass.... 

      Then it continues on...it's a fun song to play so enjoy..  

      I don't know the distortion, but it's probably contained in here, the solo is a little difficult for
      my abilities, but maybe someone out there can tab it...
            
Hard to play? Try these video lessons and learn fast. | Correct




comments powered by Disqus
↑ Back to top | Tablatures and chords are parodies/interpretations of the original songs. You may use it for private study, scholarship, research or language learning purposes only