>
 >
Kielbasa 3

Kielbasa 3 Guitar Tabs

Tenacious D - Kielbasa 3 chords, tabs, tablatures, lyrics

Guitar lessons | Add/correct | Request | Top 50 tabs Artists:  A B C D E F G H I J K L M N O P Q R S T U V W X Y Z 0-9

Kielbasa 3 Guitar Tabs – Tenacious D

CD, Sheet music, Poster

Do you like Kielbasa 3? Share with your friends now
ChordsDrum TabsTabsTabs v2Tabs v3Tabs v4Tabs v5Tabs v6Tabs v7Ukulele
Band: Tenacious D
Song Title: Kielbasa

In my opinion this is one of The D's best songs. 
This is how i think it's played, so fingers  crossed i've done this song 
some justice.

Beginning Chords
E|--1----0----0--|                                          
B|--0----1----2--|
G|--0----3----0--|
D|--0----2----2--|
A|--2----3----0--|
E|--3------------|
                                                                                   
Intro/Verses x3                                                                          
E|-----------------------------------------------------|
B|---------------------1-1--1---1--1--1~---------------|
G|--------3b--0-3b-0~--0-0--0h2----0--0~---------------|
D|--------0---0-0--0~--3-3--3------3--0h2~--0-0h2-0----|
A|---------------------0-0--0------0--3~------------0--|
E|--3--3-----------------------------------------------|

E|-----------------------------------------|
B|---------------------1-1--1---1--1-1--1--|
G|--------3b--0-3b-0~--0-0--0h2----0-0--0--|
D|--------0---0-0--0~--3-3--3------3-3--2--|
A|---------------------0-0--0------0-0--3--|
E|--3--3-----------------------------------|

E|-----------------------------------------------------|
B|---------------------1-1--1---1--1--1~---------------|
G|--------3b--0-3b-0~--0-0--0h2----0--0~---------------|
D|--------0---0-0--0~--3-3--3------3--0h2~--0-0h2-0----|
A|---------------------0-0--0------0--3~------------0--|
E|--3--3-----------------------------------------------|


E|----------------------------------| |---------------| 
B|---------------------1---1--1--1--| |--1---1--1--1--| (On Third time 
G|---------------------0h2----0--0--| |--0h2----0--0--| (Repeat this 
D|---------------------3------3--2--| |--3------3--2--| (Section 3  
A|----2-2h3-2-0-2------0------0--3--| |--0------0--3--| (Times
E|--3-------------3-1---------------| |---------------|

1st Solo
E|----------------------------------------------------------|
B|--11--11--11--11--11---8h10-8-----------------------------|
G|--12--12--12--12--12----------10-9~-------------------10--|
D|------------------------------------10-10p8---------8-----|
A|--------------------------------------------10--/10-------|
E|----------------------------------------------------------|

E|----------------------------|
B|----------------------------|
G|----------------------------|
D|-----8-10--10h11-10-8~--8\--|
A|--10------------------------|
E|----------------------------|

2nd Solo
E|---------------------------------------------------------------|
B|--11-11-11-11-11-11-11-11---8h10-8-----------------------------|
G|--12-12-12-12-12-12-12-12----------10-9~-------------------10--|
D|-----------------------------------------10-10p8---------8-----|
A|-------------------------------------------------10--/10-------|
E|---------------------------------------------------------------|

E|-----------------------|
B|-----------------------|
G|-----------------------|
D|-----8h10-8------------|
A|--10--------10-8-5-3~--|
E|-----------------------|

Breakdown x11
E|-----------------------------------|
B|-----------------------------------|
G|------------------5-5-5-5-5-5-5-5--|
D|--5-5-5-5-5-5-5-5-3-3-3-2-2-2-2-0--|
A|--3-3-3-2-2-2-2-0-3-3-3-3-3-3-3-3--|
E|--3-3-3-3-3-3-3-3------------------|

Ending
Part One (Play Once)
E|---------------------------|
B|---------------------------|
G|---------------------------|
D|--2--2--22-2-2--3-3-3-3-3--|
A|--2--2--22-2-2--3-3-3-3-3--|
E|--0--0--00-0-0--1-1-1-1-1--|

Part Two x3
E|--------x-x-x-------x-x-------x-x-x--------x-x--|
B|--------x-x-x-------x-x-------x-x-x--------x-x--| 
G|--------x-x-x-5-5-5-x-x-9--9--x-x-x-101010-x-x--| (<- These are 10s)
D|--5--5--x-x-x-5-5-5-x-x-9--9--x-x-x-101010-x-x--|
A|--5--5--x-x-x-3-3-3-x-x-7--7--x-x-x-8-8-8--x-x--|
E|--3--3--x-x-x-------x-x-------x-x-x--------x-x--|

Final Part
E|-----------------------12(Harmonic)--|
B|-----------------------12(Harmonic)--| 
G|-----------------------12(Harmonic)--|
D|--5-5-5-5-5-5-5-5-5------------------|
A|--5-5-5-5-5-5-5-5-5------------------|
E|--3-3-3-3-3-3-3-3-3------------------|

Dude that was TNT!





Comments


Popular Tenacious D tabs & chords
Fuck Her Gently Bass Tabs
Metal Bass Tabs
Baby 2 Chords
Im The Only Gay Eskimo 1 Chords
Wonderboy Chords
Friendship Drum Tabs
Explosivo! Tabs
F*** Her Gently 1 Tabs
Keilbasa 1 Tabs
Master Exploder Ukulele


Song lyrics



↑ Back to top | Tablatures and chords are parodies/interpretations of the original songs. You may use it for private study, scholarship, research or language learning purposes only
© 2014 AZChords.com Contact us | Privacy policy | DMCA | Add/correct tabs | Request tabs | Top 50 tabs