» » »

Tenacious D, Jesus Ranch Tabs (ver.3)

Artists:  A B C D E F G H I J K L M N O P Q R S T U V W X Y Z # 

Jesus Ranch Tabs (ver.3)

Tenacious D Tabs
Rating:
0/5 (0 votes)
Jesus Ranch lessons Tabs too difficult? Try these video lessons and learn fast
                Band - The 'D'
Song - Jesus Ranch


This is totally nicked from 'GuitarLord14' so he/she gets the credit ive just added 
the guitar break and the harmonics bit. Cheers to you guitarlord whoever you are!

Standard Tuning (low to high EADGBE)



E|------2-------------------------
B|------2h3-----3h2-----0h1-----2-
G|o-----4-------2-------2-------0-
D|o-----4-------2-------2-------4-
A|--2-2-----0-0---------0---------
E|------------------0-0-------2---

The Verse is partially played out like the intro, but switches to strumming 
off and on.



E|------------------
B|------------------
G|o-7~~~~~~~~-------
D|o-7~~~~~~~~-------
A|--5~~~~~~~~-------
E|--(let ring)------
"I'm takin' a walk..."

Then just strum these chords (figure out the pattern on the song)
A E Bm (stop) "Smells of ***..."

"I come upon a silver-striped mushroom..."
    Bm    A           E           F#?*

*= 044300

And repeat those chords for "Fly, lalala..."


Guitar break
						                                     Tremolo pick 
				|		   
|----10--10--10--10--10------10--|------------10--10~~~~~~~-12^-(14)-12|
|----10--10--10--10--10--12------|12------12---------------------------|
|--------------------------------|-------------------------------------|
|--------------------------------|-------------------------------------|
|2-------------------------------|-------------------------------------|
|--------------------------------|-------------------------------------|


    
|--10--------10------------------|
|--------12----------------------|
|--------------------------------|
|--------------------------------|
|--------------------------------|
|--------------------------------|


Harmonics bit

Note - All natural harmonics

|--------------------------------|
|----------------<7>-------------|
|----------<7>-------------------|
|--------------------------------|
|----<4>-------------------------|
|--------------------------------|


Thats it!

Now get off the internet and go rock out with 'The D' or i'll kick ur sorry ass!
            

comments powered by Disqus
↑ Back to top | Tenacious D Tabs for Jesus Ranch. Lyrics for acoustic guitar and electric guitar. Tablatures and chords are parodies/interpretations of the original songs. You may use it for private study, scholarship, research or language learning purposes only