» » »

History Tabs (ver.1)

Artists:  A B C D E F G H I J K L M N O P Q R S T U V W X Y Z # 

History Tabs (ver.1)

Tenacious D
Rating:
0/5 (0 votes)

Hard to play? Try these video lessons and learn fast.
                Alrighty, I've added some new stuff to my old tab. Hopefully it can help you a bit more. 
I couldn't figure out the little solo stuff in the middle of the song but it goes 
like that. You can find out yourself I guess.

E|-------------------------------------------------------------------------|
B|-------------------------------------------------------------------------|
G|--9h11-11-11-11-11-11-9-9h11-11-11-11-11--5-5-9-9-9-9-11-9-7-------------|
D|--0----0--0--0--0--0--0-0----0--0--0--0---0-0-0-0-0-0-0--0-0-------------|
A|-------------------------------------------------------------------------|
E|-------------------------------------------------------------------------|
this is a song called the history of tenacious d and its not just a list of

E|-------------------------------------------------------------------------|
B|-------------------------------------------------------------------------|
G|--5h7-7-7-7-5h7-7-7-7-12-11-7--5-5-9-9-9-9-11-9-9------------------------|
D|--0---0-0-0-0---0-0-0-0--0--0--0-0-0-0-0-0-0--0-0------------------------|
A|-------------------------------------------------------------------------|
E|-------------------------------------------------------------------------|
bullsh*t things that we've done in the past,but its a chronicling of our rise to POWER!

E|-2-2-2-2-3-2-0-2-2-2-2-3-2-0-0-0-0-0-0-0-3-3-3-3-3-----------------------|
B|-3-3-3-3-3-3-3-3-3-3-3-3-3-3-1-1-1-1-1-1-1-1-1-1-1-----------------------|
G|-2-2-2-2-2-2-2-2-2-2-2-2-2-2-0-0-0-0-0-0-0-0-0-0-0-----------------------|
D|-----------------------------2-2-2-2-2-2-2-2-2-2-2-----------------------|
A|-----------------------------3-3-3-3-3-3-3-3-3-3-3-----------------------|
E|-------------------------------------------------------------------------|
we ride with kings on mighty steeds across the devil's plain

E|-2-2-2-2-3-2-0-2-2-2-2-3-2-0-0-0-0-0-0-0-0-0-3-3-3-3-3-------------------|
B|-3-3-3-3-3-3-3-3-3-3-3-3-3-3-1-1-1-1-1-1-1-1-0-0-0-0-0-------------------|
G|-2-2-2-2-2-2-2-2-2-2-2-2-2-2-0-0-0-0-0-0-0-0-0-0-0-0-0-------------------|
D|-----------------------------2-2-2-2-2-2-2-2-0-0-0-0-0-------------------|
A|-----------------------------3-3-3-3-3-3-3-3-2-2-2-2-2-------------------|
E|---------------------------------------------3-3-3-3-3-------------------|
we've walked with Jesus and his cross he did not die in vain No!

E|-------------------------------------------------------------------------|
B|-------------------------------------------------------------------------|
G|.-----17-17-17-16--14-14-14-12--12-12-12-11--9-9-9-7--5-5-5-4--2---------|
D|.------0--0--0--0---0--0--0--0---0--0--0--0--0-0-0-0--0-0-0-0--0---------|
A|------(Kyle does something like this, I can't get it exacly right)-------|
E|-------------------------------------------------------------------------|
1.
2.Rock!
E|-2-2-2-2-3-2-0-2-2-2-2-3-2-0-0-0-0-0-0-0-3-3-3-3-3-----------------------|
B|-3-3-3-3-3-3-3-3-3-3-3-3-3-3-1-1-1-1-1-1-1-1-1-1-1-----------------------|
G|-2-2-2-2-2-2-2-2-2-2-2-2-2-2-0-0-0-0-0-0-0-0-0-0-0-----------------------|
D|-----------------------------2-2-2-2-2-2-2-2-2-2-2-----------------------|
A|-----------------------------3-3-3-3-3-3-3-3-3-3-3-----------------------|
E|-------------------------------------------------------------------------|
1.we' ve run with wolves we've climbed K2 even stopped a moving train
2.we ride we ride and we'll never subside we'll ride till the planets collide
E|-2-2-2-2-3-2-0-2-2-2-2-3-2-0-0-0-0-0-0-0-0-0-3-3-3-3-3-------------------|
B|-3-3-3-3-3-3-3-3-3-3-3-3-3-3-1-1-1-1-1-1-1-1-0-0-0-0-0-------------------|
G|-2-2-2-2-2-2-2-2-2-2-2-2-2-2-0-0-0-0-0-0-0-0-0-0-0-0-0------------------.|
D|-----------------------------2-2-2-2-2-2-2-2-0-0-0-0-0------------------.|
A|-----------------------------3-3-3-3-3-3-3-3-2-2-2-2-2-------------------|
E|---------------------------------------------3-3-3-3-3-------------------|
1.we've travelled through space and time my friends to rock this house again
2.and if you say that we do not ride, I'll turn your f**king hide

E|-------------------------------------------------------------------------|
B|-------------------------------------------------------------------------|
G|.-----17-17-17-16--14-14-14-12--12-12-12-11--9-9-9-7--5-5-5-4--2---------|
D|.------0--0--0--0---0--0--0--0---0--0--0--0--0-0-0-0--0-0-0-0--0---------|
A|-------------------------------------------------------------------------|
E|-------------------------------------------------------------------------|
2.Ride!
E|-2-2-2-2-3-2-0-2-------------0-------------------------------------------|
B|-3-3-3-3-3-3-3-3-------------1-------------------------------------------|
G|-2-2-2-2-2-2-2-2-------------0-------------------------------------------|
D|-----------------------------2-------------------------------------------|
A|-----------------------------3-------------------------------------------|
E|-------------------------------------------------------------------------|
Kyle's fingers be silver Jack's voice then be gold both lest you think we're vain

E|-2-2-2-2-3-2-0-2-2-2-2-3-2-0-0-0-0-0-0-0-0-0-3-3-3-3-3-------------------|
B|-3-3-3-3-3-3-3-3-3-3-3-3-3-3-1-1-1-1-1-1-1-1-0-0-0-0-0-------------------|
G|-2-2-2-2-2-2-2-2-2-2-2-2-2-2-0-0-0-0-0-0-0-0-0-0-0-0-0-------------------|
D|-----------------------------2-2-2-2-2-2-2-2-0-0-0-0-0-------------------|
A|-----------------------------3-3-3-3-3-3-3-3-2-2-2-2-2-------------------|
E|---------------------------------------------3-3-3-3-3-------------------|
we know your all robots and we don't care Tenacious D we reign!...

E|-------------------------------------------------------------------------|
B|-------------------------------------------------------------------------|
G|.-----17-17-17-16--14-14-14-12--12-12-12-11--9-9-9-7--5-5-5-4--2---------|
D|.------0--0--0--0---0--0--0--0---0--0--0--0--0-0-0-0--0-0-0-0--0---------|
A|-------------------------------------------------------------------------|
E|-------------------------------------------------------------------------|
                                                  we reign!...
E|-2-2-2-2-3-2-0-2-2-2-2-3-2-0-0-0-0-0-3-3-3-3-0-0-0-0-2-------------------|
B|-3-3-3-3-3-3-3-3-3-3-3-3-3-3-1-1-1-1-0-0-0-0-1-1-1-1-3-------------------|
G|-2-2-2-2-2-2-2-2-2-2-2-2-2-2-0-0-0-0-0-0-0-0-0-0-0-0-2-------------------|
D|-----------------------------2-2-2-2-0-0-0-0-2-2-2-2---------------------|
A|-----------------------------3-3-3-3-2-2-2-2-3-3-3-3---------------------|
E|-------------------------------------3-3-3-3-----------------------------|
supreme of the,      OH YEAH!                          Burrito supreme,
E|-0-0-0-0-3-3-3-3-0-0-0-0-2---------------0-0-0-0-3-3-3-3-0-0-0-0-2-------|
B|-1-1-1-1-0-0-0-0-1-1-1-1-3---------------1-1-1-1-0-0-0-0-1-1-1-1-3-------|
G|-0-0-0-0-0-0-0-0-0-0-0-0-2---------------0-0-0-0-0-0-0-0-0-0-0-0-2-------|
D|-2-2-2-2-0-0-0-0-2-2-2-2-----------------2-2-2-2-0-0-0-0-2-2-2-2---------|
A|-3-3-3-3-2-2-2-2-3-3-3-3-----------------3-3-3-3-2-2-2-2-3-3-3-3---------|
E|---------3-3-3-3---------------------------------------3-3-3-3-----------|
                          chicken supreme                    cutless supreme

E|-0-0-0-0-3-3-3-3-0-0-0-0-2-------------- 0-0-0-0-3-3-3-3-0-0-0-0-2-------|
B|-1-1-1-1-0-0-0-0-1-1-1-1-3---------------1-1-1-1-0-0-0-0-1-1-1-1-3-------|
G|-0-0-0-0-0-0-0-0-0-0-0-0-2-------------- 0-0-0-0-0-0-0-0-0-0-0-0-2-------|
D|-2-2-2-2-0-0-0-0-2-2-2-2-----------------2-2-2-2-0-0-0-0-2-2-2-2---------|
A|-3-3-3-3-2-2-2-2-3-3-3-3-----------------3-3-3-3-2-2-2-2-3-3-3-3---------|
E|---------3-3-3-3-------------------------3-3-3-3-------------------------|
                         Supreme,go now Kyle 123

E|-------0-0-0-0-3-3-3-3-0-0-0-0-2---------------0-0-0-0-3-3-3-3-0-0-0-0-2-|
B|-------1-1-1-1-0-0-0-0-1-1-1-1-3---------------1-1-1-1-0-0-0-0-1-1-1-1-3-|
G|-------0-0-0-0-0-0-0-0-0-0-0-0-2---------------0-0-0-0-0-0-0-0-0-0-0-0-2-|
D|-------2-2-2-2-0-0-0-0-2-2-2-2-----------------2-2-2-2-0-0-0-0-2-2-2-2---|
A|-------3-3-3-3-2-2-2-2-3-3-3-3-----------------3-3-3-3-2-2-2-2-3-3-3-3---|
E|---------------3-3-3-3---------------------------------3-3-3-3-----------|
Supreme,go now Kyle 123        Supreme,go now Kyle 123          Burrito
                                                                   Supreme
E|-0-0-0-0-3-3-3-3-0-0-0-0-2--0-0-0-0-3-3-3-3-0-0-0-0-2--------------------|
B|-1-1-1-1-0-0-0-0-1-1-1-1-3--1-1-1-1-0-0-0-0-1-1-1-1-3--------------------|
G|-0-0-0-0-0-0-0-0-0-0-0-0-2--0-0-0-0-0-0-0-0-0-0-0-0-2--------------------|
D|-2-2-2-2-0-0-0-0-2-2-2-2----2-2-2-2-0-0-0-0-2-2-2-2----------------------|
A|-3-3-3-3-2-2-2-2-3-3-3-3----3-3-3-3-2-2-2-2-3-3-3-3----------------------|
E|---------3-3-3-3--------------------3-3-3-3------------------------------|
                   chicken supreme            cutless supreme
E|-0-0-0-0-3-3-3-3-0-0-0-0-2-----------------------------------------------|
B|-1-1-1-1-0-0-0-0-1-1-1-1-3-----------------------------------------------|
G|-0-0-0-0-0-0-0-0-0-0-0-0-2-----------------------------------------------|
D|-2-2-2-2-0-0-0-0-2-2-2-2-------------------------------------------------|
A|-3-3-3-3-2-2-2-2-3-3-3-3-------------------------------------------------|
E|---------3-3-3-3---------------------------------------------------------|
                   Supreme!
            
Hard to play? Try these video lessons and learn fast. | Correct




comments powered by Disqus
↑ Back to top | Tablatures and chords are parodies/interpretations of the original songs. You may use it for private study, scholarship, research or language learning purposes only