» » »

Tenacious D, Dude (I Totally Miss You) Tabs (ver.2)

Artists:  A B C D E F G H I J K L M N O P Q R S T U V W X Y Z # 

Dude (I Totally Miss You) Tabs (ver.2)

Tenacious D Tabs
 Rating:
4/5 (4 votes)
Dude (I Totally Miss You) lessons Tabs too difficult? Try these video lessons and learn fast
1
                "(1)
CHORDS AND BOTH SOLOS TAB. THIS CANNOT BE DECLINED
AS IT IS PEFRECT AND ALL THE OTHER TABS FOR THIS SONG ARE WRONG.
I HAVE NO IDEA WHY YOU DECLINED THIS TAB FIRST TIME.

to check out the acoustic solo cover


other tabs - few chords and
notes are wrong.
kage doesnt use the high e and b strings
(apart from the D near the end of the tab
where he fully strums a D chord)
when strumming the chords.
listen to the song youll get my drift.

/ = slide up
\ = slide down
v = vibrato
14b6 = 14th fret bent up to 16th
h = hammer on
p= pull off

intro chords (no singing)  Em, D/F#, C/G, Em, Em, D/F#, B7, Em
                            Em, D/F#, C/G, Em, Em, C/G, B7

Em              D/F#
Dude  I totally miss you
C/G              Em
I really f**king miss you
Em       D/F#         B7            Em
I'm all alone all the time. all the time
Em              D/F#
Dude  I totally miss you
C/G                 Em
The things we did together
C/G   D/F#     B7
Where have you gone?

C/G                D/F#
I totally miss the honesty
Em                    Em
And special times, and honestly
C/G                D/F#               B7
I totally miss the f**ked up thing ya do
Em              D/F#
Dude, I totally miss you
C/G        D
I totally miss you
Em              C/G            B7
Dude, I totally miss you all the time

ACOUSTIC SOLO BACKING CHORDS & TAB

Em, D/F#, C/G, Em, Em, D/F#, B7, Em
Em, D/F#, C/G, Em, C/G, D/F#, B7

e----7---14h15p14p12-14-14p12----12-----------------------------|
B---8-------------------------15-------12--12--12---10--10--11--|
G--9--------------------------------14-12--12--12---11--11--11--|
D----------------------------------------14--14--14---12--12----|
A---------------------------------------------------------------|
E---------------------------------------------------------------|

e---------------------------------------0--0--0--0--0-------|
B--------------------11b12--------------13-12-10-10h12------|
G--11--11/12\----9h12-----12p9--12p11p9---------------------|
D--13--13/14\-----------------------------------------------|
A-----------------------------------------------------------|
E-----------------------------------------------------------|

e--0-0-0---0-0-(0)---5-7/8\7--|
B--5-7-7b8-7-5-(5)--7--0-0-0--|
G-----------------/8---8/9\8--|
D-----------------------------|
A-----------------------------|
E-----------------------------|

C/G                D/F#
I totally miss the honesty
Em                   Em
And special times, and honestly
C/G                D/F#               B7
I totally miss the f**ked up things ya do
Em              D/F#
Dude, I totally miss you
C/G        D
I totally miss you
Em              C/G            B7
Dude, I totally miss you all the time

ELECTRIC SOLO TAB AND BACKING CHORDS

Em, D/F#, C/G, Em, Em, D/F#, B7, Em
Em, D/F#, C/G, Em, C/G, D/F#, B7

e------------7/5-----5--5h7-----------|
B--8v---7h8------7v----------7/8p7----|
G-----9----------------------------9v-|
D-------------------------------------|
A-------------------------------------|
E-------------------------------------|

e---------------------------------------|
B---------------------------------------|
G--7-4-7-4-7b9----4p3p2p0--2p0--2b------|
D---------------------------------------|
A---------------------------------------|
E---------------------------------------|

e------------------------------------12----------------------------|
B-------------------------15------------15----------------12-------|
G------12-14-14b16-----------14b~----------14br-12--14b16----12----|
D--/14------------------------------(release^ bend pull of to 12)--|
A------------------------------------------------------------------|
E------------------------------------------------------------------|

e----------------------------------------------------------------------|
B--------------------------15h17---------------------------------------|
G----------------12h14/17--------14p12---------------------------------|
D--------12h14-------------------------14p12---------------------------|
A---/14--------------------------------------14-13-12/10------12b14---|
E---------------------------------------------------------12-----------|

C/G                D/F#
I totally miss the honesty
Em                 Em
And special times, and honestly
C/G                D/F#               B7
I totally miss the f**ked up things ya do
Em              D/F#
Dude, I totally miss you
C/G       D
I totally miss you
Em              C/G             B7
Dude, I totally miss you all the time

Little riff at the end goes this.
e-----------------------------|
B-----------------------------|
G--------------0--------------|
D--------4--------4-----2-----|
A-----2-----2--------2--------|
E--0-----------------------0--|
"            
Submit corrections

comments powered by Disqus
↑ Back to top | Tenacious D Tabs for Dude (I Totally Miss You). Lyrics for acoustic guitar and electric guitar. 1 Tablatures and chords are parodies/interpretations of the original songs. You may use it for private study, scholarship, research or language learning purposes only