» » »

Tenacious D, Double TeamIntro Tabs (ver.1)

Artists:  A B C D E F G H I J K L M N O P Q R S T U V W X Y Z # 

Double TeamIntro Tabs (ver.1)

Tenacious D Tabs
 Rating:
4/5 (4 votes)
Double TeamIntro lessons Tabs too difficult? Try these video lessons and learn fast
1
                This is my first time posting a tab. Let me know what you think.

Key:
h=hammer
^=Legato slide
/ or \= Shift slide


E|---------7------8--------8------5------5--------3--------7-----------|
B|----7h8--8-------8---------8-----5-------5-------3--------7----------|
G|----9----9---------9h10----9------6h7----6------------------0--------|
D|-----------9--10----10---------7---7----------5-----5^9--------------|
A|--7------------------------------------------------------------------|
e|---------------------------------------------------------------------|
Repeat once

E|-----------7----------------8--------0------0-------0--------0-------|
B|-----7h8---8-----------------8----------------0-------0-------08-----|
G|-----9-----9--0-----9--9---------------6--------------4----------9---|
D|-----9-----------------10------10\7------7------7\5------5/9-----9---|
A|-----7-----------------10------10\7------7------7\5------5/9-----7---|
e|--0--------------8---------8----8\5------5------5\3------3/7---------|
          Slip out            The Buttress           Ho, ho, ho
          this book,           of Windsor                    who's this?

E|---------7-------------0--------------0-----0-----------0---------0-----|
B|----7h8--8-0-----------0----------------0------0-----------0---------0--|
G|----9----9-0-----------9----------------6------6-----------4---------8--|
D|----9----------10--10--10---10--10\7------7------7----5-------5/9------9|
A|----7----------10--10-------10--10\7------7------7----5-------5/9------9|
e|--0-----0-------8---8--------8---8\5------5------5-0--3-------3/7------7|
How's it goin?        That's the 1st thing I say     How's it goin? Are u
                                      say to you                  flowin?
Repeat the last line  3 times
This ends on the word Underpants
            
Submit corrections

comments powered by Disqus
↑ Back to top | Tenacious D Tabs for Double TeamIntro. Lyrics for acoustic guitar and electric guitar. 1 Tablatures and chords are parodies/interpretations of the original songs. You may use it for private study, scholarship, research or language learning purposes only