>
 >
Classico 2

Classico 2 Guitar Tabs

Tenacious D - Classico 2 chords, tabs, tablatures, lyrics

Guitar lessons | Add/correct | Request | Top 50 tabs Artists:  A B C D E F G H I J K L M N O P Q R S T U V W X Y Z 0-9

Classico 2 Guitar Tabs – Tenacious D

CD, Sheet music, Poster

Do you like Classico 2? Share with your friends now
Bass TabsTabsTabs v2Tabs v3Tabs v4Tabs v5
-------------------------------------------------------------------------------
                             CLASSICO - Tenacious D
-------------------------------------------------------------------------------

Note: -This is from the movie "Tenacious D: POD". 
      -I'm sure this is the most accurate tab for "Classico" and is best 
         played on a Classical/Spanish Guitar.
      -Much credit to John Koneski for corrections/revisions

Tuning: Standard

e|--0-2--3--2--0-----0--2-----------0----------------------------------------|
B|----------------4--------0--2--4-----3--1--0-----------------0-------------|
G|----------------------------------------------2--0-----0--2-----2--0-------|
D|----------------------------------------------------4-----------------4--2-|
A|----------0-----2--0--------------------------0-----2--0-----------0--2----|
E|--3-2--0-----------------3--2-----0--2--0--3-----------------3-----------0-|

e|--7-6-7-6-7---------------------------------/7-6--7-6-7--------------------|
B|------------7-10-8--8-------------------8----------------7--10--8--8-------|
G|--------------------9---------8---------9--------------------------9-------|
D|--------------------9---------9---------9--------------------------9-------|
A|--------------------7----6-7--9----6-9--7--------------------------7---6-7-|
E|-----------------------7------7--7------------------------------------7----|

e|------------------------7-7---8p7-5-5---7p5-3-3---5p3-2--------------------|
B|-------------8--7-8-10--8---------7---------5---------4--------------------|
G|--8----------9----------7---7-----7---7-----4---4-----4--4-4-3-4-3-4-3-----|
D|--9----------9--------------------0----------------------------------------|
A|--9----10-9--7-------------------------------------------------------------|
E|--7--7---------------------------------------------------------------------|

                                    TP    TP
e|---------------7-6-7-6-7---------------------------------------------------|
B|--------------------------7-10-8---5-----4---------------------------------|
G|---------------------------------------------------------------------------|
D|---------------------------------------------------------------------------|
A|--2-1-2-1-2-1--------------------------------------------------------------|
E|---------------------------------------------------------------------------|

e|-----------------------------0----0-----0----------------------------------|
B|--------------------------7--0--2---2/4---2---2----0---0-----4-2p0---------|
G|------------------------8----1--1---1-------3------3/4-3/4--4--------------|
D|--9------9------9----9----------2---2-----------4--------------------------|
A|--9--8/9----7/9---9--------------------------------------------------------|
E|--7--6/7----6/7--------------0--0---0--------------------------------------|

e|---------------------------------------------------------------------------|
B|----------2-5---0p2p0--4-2p0--------2-5------------------------------------|
G|--4-3-3-------3-4---4-4------4-3-3------3-------------------8p6---6-8-8----|
D|--4-----4--------------------4-----4-------9-9-9-8-6-8-9-9------7----------|
A|---------------------------------------------------------------------------|
E|---------------------------------------------------------------------------|

e|---------------------------------------------------------------------------|
B|-7-5-4-5-7-7/9-7-----------------------------------------------------------|
G|-----------------9-9-9-9-8-8-8-8-6-6-6-----------------6---6h8-8-8-8-9-8-9-|
D|---------------------------------------9-8-6-8-9-9-9-9---9---9-9-9---------|
A|---------------9-------9-------9-------9---9---9-9-9-----------------------|
E|-----------------------------------------------7-7-7-----------------------|

e|------7--------------------------------------------------------------------|
B|--7-7-7--------------------------------------------------------------------|
G|--8-8-8----6-8-10--11----10----10----11----10----10-----11--11--11--11-----|
D|--9-9-9--9---------11-11----11----11-11-11----11----11--11--11--11--11-----|
A|--------------------9-----------------9------------------9---9---9---9-----|
E|-----------------------9-----------------9---------------------------------|

e|---------------------------------------------------------------------------|
B|---------------------------------------------------------------------------|
G|--10-10-10-10--11-11-11----------------------------------------------------|
D|--11-11-11-11--11-11-11----------------------------------------------------|
A|--11-11-11-11---9--9--9----------------------------------------------------|
E|---9--9--9--9---9--9--9s---------------------------------------------------|


| TP trem. picking
| /  slide up
| \  slide down
| h  hammer-on
| p  pull-off
| ~  vibrato
| +  harmonic
| x  Mute note
===============================================================================





Comments


Popular Tenacious D tabs & chords
Rock Your Socks Off Bass Tabs
Government Totally Sucks 1 Chords
He Teaches Me Chords
Pick Of Destiny 2 Chords
Ufo Chords
Dio Tabs
Kyle Took A Bullet For Me 1 Tabs
Pick Of Destiny 1 Tabs
Rock Is Dead 2 Tabs
Rock Your Socks Tabs


Song lyrics



↑ Back to top | Tablatures and chords are parodies/interpretations of the original songs. You may use it for private study, scholarship, research or language learning purposes only
© 2014 AZChords.com Contact us | Privacy policy | DMCA | Add/correct tabs | Request tabs | Top 50 tabs