» » »

Car Chase City Bass tabs (ver.1)

Artists:  A B C D E F G H I J K L M N O P Q R S T U V W X Y Z # 

Car Chase City Bass tabs (ver.1)

Tenacious D
Rating:
2/5 (2 votes)

Hard to play? Try these video lessons and learn fast.
                ----------------------------------------------------------------------------
----------------------------------------------------------------------------


Tuning: standard


Chorus:

G|--------------------------------------------|
D|-7-5------------7--7-5------------7-7-------|
A|-----7-5-555555--------7-5-555555-----7p5p3-|
E|--------------------------------------------|

Verse:

G|--------------------------------------------------------|
D|---------------------------3----------------------------|
A|-----------------------3h5------------------------------| x 2
E|-5-5-555-5p3h4-5-5-555-------5-5-555-5p3h4-5-5-555-5/12-|

G|-----------------------------------------------------------|
D|-------------------------------------------------4/9-7-5---|
A|-----------------------5h7p5-----------------------------7-|
E|-7-7-777-7p5h7-7-7-777-------7-7-777-7p5h7-7-7-7-----------|

G|--------------------------------------------------------|
D|---------------------------3----------------------------|
A|-----------------------3h5------------------------------| 
E|-5-5-555-5p3h4-5-5-555-------5-5-555-5p3h4-5-5-555-5/12-|

Post Chorus:

G|--------------------------------------------------------|
D|---------------------------3----------------------------|
A|-----------------------3h5------------------------------|
E|-5-5-555-5p3h4-5-5-555-------5-5-555-5p3h4-5-5-555-5/12-|

G|-----------------------------------------------------------|
D|-------------------------------------------------4/9-7-5---|
A|-----------------------5h7p5-----------------------------7-|
E|-7-7-777-7p5h7-7-7-777-------7-7-777-7p5h7-7-7-7-----------|

G|-----------------------------|
D|-----------------------------|
A|-----------------------------| 
E|-5-5-555-5p3h4-5-5-555-5/12--|

Bridge:

G|------------------------------------------------------------------------|
D|-------------------5-777--------------------5-777-----------------------|
A|-------------------------5-777--------------------5-777-----------------|
E|-5----5-----5-------------------5----5----5-------------7----7----7----7|

Solo:

G|--------------------------------------------------------|
D|---------------------------3----------------------------|
A|-----------------------3h5------------------------------|
E|-5-5-555-5p3h4-5-5-555-------5-5-555-5p3h4-5-5-555-5/12-|

post chorus 2:

G|-------------------------------------------|S
D|---------------------------3---------------|T
A|-----------------------3h5-----------------|O
E|-5-5-555-5p3h4-5-5-555-------5-5-555-5p3h4-|P


     thats it :D fills may not be exact but im sure there close amazing song amazing band

        Song structure:

        chorus
        verse
        chorus
        post-chorus
        chorus
        bridge
        solo
        chorus
        chorus
        post-chorus 2
        post chorus-------> fade out 
            
Hard to play? Try these video lessons and learn fast. | Correct




comments powered by Disqus
↑ Back to top | Tablatures and chords are parodies/interpretations of the original songs. You may use it for private study, scholarship, research or language learning purposes only