» » »

Break In City Storm The Gate Tabs (ver.2)

Artists:  A B C D E F G H I J K L M N O P Q R S T U V W X Y Z # 

Break In City Storm The Gate Tabs (ver.2)

Tenacious D
Rating:
4/5 (6 votes)

Hard to play? Try these video lessons and learn fast.
                                Break In City (Storm the Gate)- Tenacious D


Tuning:standard    solo isn't 100% but its very close

Intro.Gtr. 1
e|--------------------------------------------------------------------------|
B|--------------------------------------------------------------------------|
G|--------------------------------------------------------------------------|
D|---2----2--0--2--0--2-----2-----------------------------------------------|
A|---2----2--0--2--0--2-----2-----------------------------------------------|
E|---0----0-----0-----0--3^-0-----------------------------------------------|
 |Gtr.2
e|--------------------------------------------------------------------------|
B|--------------------------------------------------------------------------|
G|--------------------------------------------------------------------------|
D|---2----2--0--2--0--2--5--2-----------------------------------------------|
A|---2----2--0--2--0--2--5--2-----------------------------------------------|
E|---0----0-----0-----0-----0-----------------------------------------------|


Verse Gtr.1 (palm muted)
e|--------------------------------------------------------------------------|
B|--------------------------------------------------------------------------|
G|--------------------------------------------------------------------------|
D|---------2-2-2-2-2-2-2-2--2-2-2-2-2-2-2-2---------------------------------|
A|---------2-2-2-2-2-2-2-2--2-2-2-2-2-2-2-2---------------------------------|
E|---------0-0-0-0-0-0-0-0--0-0-0-0-0-0-0-0---------------------------------|
 |Gtr.2
e|--------------------------------------------------------------------------|
B|--------------------------------------------------------------------------|
G|--------------------------------------------------------------------------|
D|----------------------------5--7--8--7--5--2------------------------------|
A|----------------------------5--7--8--7--5--2------------------------------|
E|--------------------------------------------------------------------------|
    the mission is clear i'm goin over there


e|--------------------------------------------------------------------------|
B|--------------------------------------------------------------------------|
G|--------------------------------------------------------------------------|
D|------7-9-9999999---7-9-999--8--7--8--7--5---2-2--------------------------|
A|------7-9-9999999---7-9-999--8--7--8--7--5---2-2--------------------------|
E|------5/7-7777777---5/7-777--6--5--6--5--3---0-0--------------------------|
    Stay back here devise a plan    dive into the bushes

Chorus                                           play twice
e|---------------------------------------------|----------------------------|
B|---------------------------------------------|----------------------------|
G|--------------------------5-5-555-8-88-8-8888|-9999999--888--99999999--888|
D|--5-5--555---8-88-8-8888--5-5-555-8-88-8-8888|-9999999--888--99999999--888|
A|--5-5--555---8-88-8-8888--3-3-333-6-66-6-6666|-7777777--666--77777777--666|
E|--3-3--333---6-66-6-6666---------------------|----------------------------|

Solo Gtr.1
e|--------------------------------------------------------------------------|
B|--------------------------------------------------------------------------|
G|--------------------7h9p7h9p7h9---9h12p9h12p9h12-----12--14--14^--12------|
D|----9h12p9h12p9h12---------------------------------------------------14---|
A|--------------------------------------------------------------------------|
E|--------------------------------------------------------------------------|

  play four times  palm muted (twice before vocals, twice during)
e|--------------------------------------------------------------------------|
B|--------------------------------------------------------------------------|
G|--------------------------------------------------------------------------|
D|-----2-2-2-2-2-2-2-2------------------------------------------------------|
A|-----2-2-2-2-2-2-2-2------------------------------------------------------|
E|-----0-0-0-0-0-0-0-0--3-5-3-6-5-3-0---------------------------------------|
   two airvents on the roof thats what the guy was....

| /  slide up
| \  slide down
| h  hammer-on
| p  pull-off
| ~  vibrato
| +  harmonic
| x  Mute note
===============================================================================
            
Hard to play? Try these video lessons and learn fast. | Correct




comments powered by Disqus
↑ Back to top | Tablatures and chords are parodies/interpretations of the original songs. You may use it for private study, scholarship, research or language learning purposes only