» » »

Break In-city Bass tabs (ver.1)

Artists:  A B C D E F G H I J K L M N O P Q R S T U V W X Y Z # 

Break In-city Bass tabs (ver.1)

Tenacious D
Rating:
0/5 (0 votes)

Hard to play? Try these video lessons and learn fast.
                ----------------------------------------------------------------------------
			Break-In City - Tenacious D
-----------------------------------------------------------------------------


Tuning: Standard

G|--------------------------------------------------------------------------|
D|--------------------------------------------------------------------------|
A|7~-----7-5-7-5-7-10-12-10-------------------------------------------------|
E|--------------------------------------------------------------------------| 

G|--------------------------------------------------------------------------|
D|--------------------------------------------------------------------------|
A|7--5--7--5--7-5-----------------------------------------------------------|
E|------------------------------------------------------------------------|x4 

G|--------------------------------------------------------------------------|
D|--------------------------------------------------------------------------|
A|0-2222-22-0222-1-0--2--1--0-----------------------------------------------|
E|----------------------------3-0-0000000-----------------------------------| 

G|--------------------------------------------------------------------------|
D|--------------------------------------------------------------------------|
A|--------------------------------------------------------------------------|
E|3-3-3336-6666666--8-8-888-11-11-11-11-11-11-11-11-------------------------| 

G|--------------------------------------------------------------------------|
D|--------------------------------------------------------------------------|
A|--------------------------------------------------------------------------|
E|12-12-12-12-12-12-12-12-12--11/-12-12-12-12-12-12-12-12-12--11/---------|x2 

G|--------------------------------------------------------------------------|
D|--------------------------------------------------------------------------|
A|0-2222-22-0222-1-0--2--1--0-----------------------------------------------|
E|----------------------------3-0-0000000---------------------------------|x2 

G|--------------------------------------------------------------------------|
D|--------------------------------------------------------------------------|
A|--------------------------------------------------------------------------|
E|3-3-3336-6666666--8-8-888-11-11-11-11-11-11-11-11-------------------------| 

G|--------------------------------------------------------------------------|
D|--------------------------------------------------------------------------|
A|--------------------------------------------------------------------------|
E|0-0-0-0-0-0-0-0-0-0-0-0-0-0-0-0-0-0-0-0-0-0-0-0-0-0-0-0-0-0-0-0-0-0-0-0---|
I'm not really sure on this part so I just play this with a few palm mutes here and there.

G|--------------------------------------------------------------------------|
D|--------------------------------------------------------------------------|
A|--------------------------------------------------------------------------|
E|3-3-3336-6666666--8-8-888-11-11-11-11-11-11-11-11-------------------------| 

G|--------------------------------------------------------------------------|
D|--------------------------------------------------------------------------|
A|--------------------------------------------------------------------------|
E|12-12-12-12-12-12-12-12-12--11/-12-12-12-12-12-12-12-12-12----12(x9)------|


| /  slide up
| \  slide down
| h  hammer-on
| p  pull-off
| ~  vibrato
| +  harmonic
| x  Mute note
=============================================================================
            
Hard to play? Try these video lessons and learn fast. | Correct




comments powered by Disqus
↑ Back to top | Tablatures and chords are parodies/interpretations of the original songs. You may use it for private study, scholarship, research or language learning purposes only