>
 >
Beelzeboss 3

Beelzeboss 3 Guitar Tabs

Tenacious D - Beelzeboss 3 chords, tabs, tablatures, lyrics

Guitar lessons | Add/correct | Request | Top 50 tabs Artists:  A B C D E F G H I J K L M N O P Q R S T U V W X Y Z 0-9

Beelzeboss 3 Guitar Tabs – Tenacious D

CD, Sheet music, Poster

Do you like Beelzeboss 3? Share with your friends now
Bass TabsBass Tabs v2ChordsChords v2TabsTabs v2Tabs v3Tabs v4Tabs v5Ukulele
Tenacious D (Jack Black & Kyle Gass)
Beelzeboss (The final Show down) 5:35
The Pick Of Destiny 2006

Im not sure how accurate this is but it sounds ok...

. = Palm Mute
/ = Slide Up
\ = Slide Down
x = rake

Intro:

e:-----------------------------------------------------|
b:-----------------------------------------------------|
g:--------------------------------------7-7-7-7-7-7-7--|
d:-9-9-9-9-9-9-9--10-10-10-10-10-10-10--7-7-7-7-7-7-7--|
a:-9-9-9-9-9-9-9--10-10-10-10-10-10-10--5-5-5-5-5-5-5--|
E:-7-7-7-7-7-7-7--8--8--8--8--8--8--8------------------|
     .....           ......               .....

e:------------------------------------------------------------|
b:------------------------------------------------------------|
g:-9-9-9-9-9-9-9--11-11-11-11-11-11-11--12-12-12-12-12-12-12--|
d:-9-9-9-9-9-9-9--11-11-11-11-11-11-11--12-12-12-12-12-12-12--|
a:-7-7-7-7-7-7-7--9--9--9--9--9--9--9---10-10-10-10-10-10-10--|
E:------------------------------------------------------------|
     .....           .......               ........

e:---------------------------------------------------|
b:---------------------------------------------------|
g:-14-14-14-14-14-14-14--15-15-15-15-15-15-15-15-15--|
d:-14-14-14-14-14-14-14--15-15-15-15-15-15-15-15-15--|
a:-12-12-12-12-12-12-12--13-13-13-13-13-13-13-13-13--|
E:---------------------------------------------------|
      ........


"I am Complete.." :

e:-------------------------------------------------------|
b:-------------------------------------------------------|
g:-------------------------------------------------------|
d:-8--7--x-x-x--8--7--x-x-x--8--7--x-x--7--8--x-x--8--7--|  X3
a:-8--7--x-x-x--8--7--x-x-x--8--7--x-x--7--8--x-x--8--7--|
E:-6--5--x-x-x--6--5--x-x-x--6--5--x-x--5--6--x-x--6--5--|

e:--------------|
b:--------------|
g:--------------|
d:-8--7--6--12--|   <<< End with that on third time
a:-8--7--6--12--|
E:-6--5--4--10--|


B     D     F#               G
Wait, Wait, Wait! You Mother Fucker..
G            D        A
We Challenge You To A Rock Off,
G            D                  A          D   A
Give Us One Chance To Rock Your Socks Off.


"Fuck, Fuck..." :

e:-----------|
b:-----------|
g:-----------|
d:-9\-9\-9\--|
a:-9\-9\-9\--|
E:-7\-7\-7\--|


"Fuck, The Demon Code..." :

e:------------------------------------|
b:------------------------------------|
g:------------------------------------|
d:-9-9-9-9-9--12-12-12-12--4-4-4-4----|  X2
a:-9-9-9-9-9--12-12-12-12--4-4-4-4----|
E:-7-7-7-7-7--10-10-10-10--2-2-2-2----|
     .......     ........    .....

e:----------------------------------------|
b:----------------------------------------|
g:----------------------------------------|
d:-9-9-9-9-9--12-12-12-12--4-4-4-4--7--2--|
a:-9-9-9-9-9--12-12-12-12--4-4-4-4--7--2--|
E:-7-7-7-7-7--10-10-10-10--2-2-2-2--5--0--|
     .......     ........    .....


E          E                  Am                E
If We Win, You Must Take Your Sorry Ass Back To Hell,
E                 Am   F  C   G   A      A
And Also You Will Have To Pay Our Rent.


Am
"And What If I Win.."


     G
Then You Can Take Kage Beck To Hell
G
What..

Trust Me Kage It's The Only Way

What The Fuck Are You Talking About?
                  G G G G G G G  C
Yer,but..uh....To Be Your Little Bitch!


"Fine..." :

e:------------------------------------------------------------|
b:------------------------------------------------------------|
g:-----------------------------------------------------12-11--|
d:-9-9-9-9-9-9-9-9-9-9-9-9-9-9-9-9-9--10-9-12-11-14-13-12-11--| X2
a:-9-9-9-9-9-9-9-9-9-9-9-9-9-9-9-9-9--10-9-12-11-14-13-10-9---|
E:-7-7-7-7-7-7-7-7-7-7-7-7-7-7-7-7-7--8--7-10-9--12-11--------|


Solo:    (I know this isnt accurate but its an ok subsitute)

e:-------------------------------------------|
b:------12-12-12--------------------------13-|
g:-12p14---------14-12-------14-12-----------|
d:---------------------14h12--------12p14----|
a:-------------------------------------------|
E:-------------------------------------------|


"Im The Devil.."

e:----------------------------------------------|
b:----------------------------------------------|
g:----------------------------------------------|
d:-9--12--4--9-9-9-9-9-9-9-9-9-9-9-9-9-9--(12)--|  X2(End)
a:-9--12--4--9-9-9-9-9-9-9-9-9-9-9-9-9-9--(12)--|    (On )
E:-7--10--2--7-7-7-7-7-7-7-7-7-7-7-7-7-7--(10)--|    (   )
                 ...     ...     ...


"Theres just no way..." :

      Gm         Bb         D       Gm
e:---------------------------------------|
b:-----------------3------3--3-3---------|
g:-----3--------3---3-3----2--2-------3--|
d:---5--5-5----3-3---3---0--0--0----5----|   X
a:--5-5--5---1---------------------5-5---|
E:-3------------------------------3------|

"Dude, We've Been Through.." :

     Gm         Eb         Bb      D    D
e:--------------------------------------2--|
b:---------------8----------3-------3---3--|
g:-----3-------8--8-8-----3--3-3---2-2--2--|
d:---5--5-5---8-8--8-----3-3--3---0-----0--|
a:--5-5--5---6---------1-------------------|
E:-3---------------------------------------|

Gm
Come On Kage Now IT's Time Too Blow Doors Down,
Eb                         Bb            D
I Hear Ya' Jables Now It's Time Too Blow Doors Down
Gm
Light Up The Stage Coz It's Time For A Show Down
Eb                             Bb           D
We'll Bend You Over Then We'll Take You Too Brown Town
Gm
Now We've Got Too Blow This Fucker Down,
Eb                           Bb          F
He's Going Too Rape Me If We Do Not Blow Doors Down,
Gm
Come On Kage Coz It's Time Too Blow Doors Down
Eb                               Bb           F
Ohhhhhhhhh Come On Private, It's Time for The Smack Down (dont actually know
                                                          What kyle sings
                                                          here)

         Gm               D
Hey Anti-Christ-ah, Beelzeboss
             Bb                  D
We Know Your Weakness Our Rocket Sauce
          Gm                       D
We Rocked The Casbah And Blow Your Mind
           Bb                    D
We Will Defeat Your For All Man-Kind
          Gm                      F
You Hold The Scepter, We Hold The Key
            Bb                F
You Are The Devil, We Are The D


          Gm             D
We Are The D, We Are The D
           Bb            F       X4 (end on G)
We Are The D, We Are The D


"You Guys Are Fucking Lame.." :

e:--------------------------------------------------------------------|
b:--------------------------------------------------------------------|
g:--------------------------------------------------------------------|
d:--------------------------------------------------------------------|
a:--------------------------1-x--1-x--1-x--1-x-1-3-x-1-3-x-1-3-x-1-3--|
E:-1-3-x-1-3-x-1-3-x-1-3-x-3--x-3--x-3--x-3--x------------------------|

e:------------------------------------------|
b:------------------------------------------|
g:------------------------------------------|
d:------------------------------------------|
a:-3-5-x-3-5-x-5-3-5-3-5-3-5-3-5-3-5-3-5-3--|
E:------------------------------------------|

"Noooooooo..." :

e:---------------------------------------------------------|
b:---------------------------------------------------------|
g:---------------------------------------------------------|
d:-3-3-3--2-2-2--5-5-5--4-4-4--7-7-7--6-6-6--9-9-9--8-8-8--| X2
a:-3-3-3--2-2-2--5-5-5--4-4-4--7-7-7--6-6-6--9-9-9--8-8-8--|
E:-1-1-1--0-0-0--3-3-3--2-2-2--5-5-5--4-4-4--7-7-7--6-6-6--|

e:--------------------------------------------------------|
b:--------------------------------------------------------|
g:-7-7-7--6-6-6--6-4/7\4/7\4/7\4/7\4/7\4/7\4/7\4/7\4------|
d:-7-7-7--6-6-6--6-4/7\4/7\4/7\4/7\4/7\4/7\4/7\4/7\4--12--|
a:-5-5-5--4-4-4--4-6/5\6/5\6/5\6/5\6/5\6/5\6/5\6/5\6--12--|
E:----------------------------------------------------10--|


End.





Comments


Popular Tenacious D tabs & chords
Metal Bass Tabs
Tribute Bass Tabs
City Hall Chords
The Ballad Of Hollywood Jack And The Rage Kage Chords
Wonderboy Chords
Flash Tabs
Fuck Her Gently 1 Tabs
Metal 3 Tabs
Senorita Tabs
To Be The Best Tabs


Song lyrics



↑ Back to top | Tablatures and chords are parodies/interpretations of the original songs. You may use it for private study, scholarship, research or language learning purposes only
© 2014 AZChords.com Contact us | Privacy policy | DMCA | Add/correct tabs | Request tabs | Top 50 tabs