» » »

Tenacious D, Baby Tabs (ver.2)

Artists:  A B C D E F G H I J K L M N O P Q R S T U V W X Y Z # 

Baby Tabs (ver.2)

Tenacious D Tabs
Rating:
2.8/5 (46 votes)
Baby lessons Tabs too difficult? Try these video lessons and learn fast
                ----------------------------------------------------------------------------

Tuning:standard


Yep-this is my version of baby-enjoy.....i think its right...

INTRO-
e|-------------|-------------|-------------|-------------||
B|-------------|-------------|-------------|-------------||
G|-----1---1---|-----2---2---|-----4---4---|-----2---2---||
D|-------------|-------------|-------------|-------------||
A|---2---2---2-|---4---4---4-|---6---6---6-|---4---4---4-||
E|-0-----------|-0-----------|-0-----------|-0-----------||
                                                       I

VERSE 1-
e|-------------|-------------|-------------|-------------|
B|-------------|-------------|-------------|-------------|
G|-----1---1---|-----2---2---|-----4---4---|-----2---2---|
D|-------------|-------------|-------------|-------------|
A|---2---2---2-|---4---4---4-|---6---6---6-|---4---4---4-|
E|-0-----------|-0-----------|-0-----------|-0-----------|
  can't          get      to   sleep tonight           No

e|-------------|-------------|-------------|-------------|
B|-------------|-------------|-------------|-------------|
G|-----1---1---|-----2---2---|-----4---4---|----6--------|
D|-------------|-------------|-------------|---7---------|
A|---2---2---2-|---4---4---4-|---6---6---6-|--7----------|
E|-0-----------|-0-----------|-0-----------|-0-----------|
  matter       how  hard   I   try                  cos its
      
e|-------------|-------------|-------------|-------------|
B|---5-----5---|---4-----4---|---5-----5---|---4-----4---|
G|-----6-----6-|-----4-----4-|-----6-----6-|-----4-----4-|
D|-------6-----|-------4-----|-------6-----|-------4-----|
A|-4-----------|-2-----------|-4-----------|-2-----------|
E|-------------|-------------|-------------|-------------|
  cold  and its dark   andthe  wind     is  whistling  and I

e|---------0---|-------------|-------------|-2-----------|
B|---2-------2-|---2-------2-|-----------4-|-------------|
G|-----2-------|-----2---2---|-----4---4---|-------------|
D|-------2-----|-------2-----|---4---4-----|-------------|
A|-0-----------|-0-----------|-2-----------|-------------|
E|-------------|-------------|-------------|-------------|
 can't  seem to  put out  the light

   VERSE 2-
e|-------------|-------------|-------------|-------------|
B|-------------|-------------|-------------|-------------|
G|-----1---1---|-----2---2---|-----4---4---|-----2---2---|
D|-------------|-------------|-------------|-------------|
A|---2---2---2-|---4---4---4-|---6---6---6-|---4---4---4-|
E|-0-----------|-0-----------|-0-----------|-0-----------|
   Mommas been  searching for  baby                   but

e|-------------|-------------|-------------|-------------|
B|-------------|-------------|-------------|-------------|
G|-----1---1---|-----2---2---|-----4---4---|----6--------|
D|-------------|-------------|-------------|---7---------|
A|---2---2---2-|---4---4---4-|---6---6---6-|--7----------|
E|-0-----------|-0-----------|-0-----------|-0-----------|
  baby     been trying   to get   home             cos its

e|-------------|-------------|-------------|-------------|
B|---5-----5---|---4-----4---|---5-----5---|---4-----4---|
G|-----6-----6-|-----4-----4-|-----6-----6-|-----4-----4-|
D|-------6-----|-------4-----|-------6-----|-------4-----|
A|-4-----------|-2-----------|-4-----------|-2-----------|
E|-------------|-------------|-------------|-------------|
 cold  and its  dark    andthe moon  cannot lie         the

e|---------0---|-----0-------|---------2---|-------------|
B|---2-------2-|----2--------|-------4-----|-------------|
G|-----2-------|---2---------|-----4-------|-------------|
D|-------2-----|--2----------|---4---------|-------------|
A|-0-----------|-0-----------|-2-----------|-------------|
E|-------------|-------------|-------------|-------------|
 way                      and daddies gone........(bye bye)


IM JUST A BAAABeeeeeee....


(INTRO AGAIN)

e|-------------|-------------|-------------|-------------|-------------||
B|-------------|-------------|-------------|-------------|-------------||
G|-----1---1---|-----2---2---|-----4---4---|-6---7---8---|-9-----------||
D|-------------|-------------|-------------|-------------|-------------||
A|---2---2---2-|---4---4---4-|---6---6---6-|-7---8---9---|-11----------||
E|-0-----------|-0-----------|-0-----------|-0-----------|-0-----------||
eeeeeeeeeeeeeeeeeeeeeeeeeeeeeeeeeeeeeee.......(crying-sorta)




Yeh-well thats my version of it....oh, and I'm even so kind as to put the lyrics on for you.

============================================================================
            
Submit corrections

comments powered by Disqus
↑ Back to top | Tenacious D Tabs for Baby. Lyrics for acoustic guitar and electric guitar. Tablatures and chords are parodies/interpretations of the original songs. You may use it for private study, scholarship, research or language learning purposes only