» » »

Temptations, Stand By Me Bass tabs (ver.2)

Artists:  A B C D E F G H I J K L M N O P Q R S T U V W X Y Z # 

Stand By Me Bass tabs (ver.2)

Temptations Tabs
 Rating:
4/5 (4 votes)
Stand By Me lessons Tabs too difficult? Try these video lessons and learn fast
                G--------------
D----9-10h-10h-     repeat 2x
A-10-----------
E--------------

G------------------------
D-10-9-------------------
A------12h-12h-10-12h-12h
E------------------------

G-----------------------
D-----------------------
A-12-10-8-8---8-12-10-10
E-----------------------

This song is really cool and ez 2 play sounds right i just converted i t from a 
keyboard.  Add the vocals and is a good song for old-timers and old-schoolers.

If you can't play it you should go play um... dont play anything see if you can bang 
a pencil to some whack beat and sell your bass for some ballpoint pen and become a 
writer or somethin or play piana

pe
            
Submit corrections

comments powered by Disqus
↑ Back to top | Temptations Bass for Stand By Me. Lyrics for acoustic guitar and electric guitar. Tablatures and chords are parodies/interpretations of the original songs. You may use it for private study, scholarship, research or language learning purposes only