» » »

Temptations, My Girl Bass tabs (ver.2)

Artists:  A B C D E F G H I J K L M N O P Q R S T U V W X Y Z # 

My Girl Bass tabs (ver.2)

Temptations Tabs
 Rating:
3.6/5 (7 votes)
My  Girl lessons Tabs too difficult? Try these video lessons and learn fast
1
                Temptations
My Girl (Bass)
Tuning: Standard

Intro:
|----------------------------------------------------------------------|
|-5------5------5------5------5------5------5------5------5------------|
|---3-3----3-3----3-3----3-3----3-3----3-3----3-3----3-3---------------|
|----------------------------------------------------------------------|

Verse:
|----------------------------------------------------------------------|
|----------------------------------------------------------------------|
|-3---3-3--x------------3---3-3--x------------3---3-3--x---------------|
|------------1---1-1--x------------1---1-1--x------------1---1-1--x----|

|-----------------------|
|-----------------------|
|-3---3-3--x------------|
|------------1---1-1--x-|

Chorus:
|-----------------------------------------------------------------|
|-5--x-7--------------x-5--x-7--x---------------------------------|
|------------------------------------------3--x-3--x-3--x----3--x-|
|---------x-1--2--3---------------1---3--x----------------3-------|

|----------------------------------|
|----------------------------------|
|-5--x-5----5-----5-5--------------|
|---------------------3-3----------|

Verse 2:
|------------------------------------------------------------------------|
|------------------------------------------------------------------------|
|-3---x------------------3---x------------------3---x--------------------|
|-------3----1--x-1---/5-------3----1--x-1--3---------3--x-1---1-1--x----|

|--------------------|
|--------------------|
|-3---3--------------|
|--------3--1----1---|

Chorus:
|-----------------------------------------------------------------|
|-----------------------------------------------------------------|
|-3---------2-3-x-5--x---------2-3--5--x-3-------2-3----3--5------|
|---3--x-5-------------3--x-5---------------3-3-------3-------5---|

|-----------------------|
|-----------------------|
|-5----5-5--------------|
|----------3-3----------|

Interlude:
|--------------------------------------------------------------|
|------5------5------5------5------5------5------5------5------|
|-3-3----3-3----3-3----3-3----3-3----3-3----3-3----3-3---------|
|--------------------------------------------------------------|

Orchestra/Interlude: (1:32)
|-------------------------------------------------------------------|
|-------------------------------------------------------------------|
|-3--x--------------5-3--x-3--x------------5--x-5--5----------------|
|------3--3-1--x-1--------------1--x-1---3-----------3--x-3--1--0---|

|------------------------|
|------------------------|
|------------------------|
|--0-0---5-5-5---5-5-7---|

Verse 3:
|---------------------------------------------------------------------------------|
|---------------------------------------------------------------------------------|
|-5--x----------------5--x----5-------------5--x-5-------------5--x-5---5---------|
|------5---3--x-3---5------5-----3--x-3---5---------3--x-3---5------------3---3---|

Chorus:
|------------------------------------------------------------------|
|------------------------------------------------------------------|
|------------5---7------------5---7----5---------5-----5-7---7-7---|
|-5--x-7---5---------5--7---5-------------5-5--5-----5-------------|

|----------------------------------------------------------------------|
|-7-7-5-5-4-4-----------------------------------7-7-5-5-4-4------------|
|-------------7-7--5--------5------5-6-7--7-7---------------7-7-5--x---|
|---------------------5-5-x----5-5-----------------------------------5-|

Fade Out
            
Submit corrections

comments powered by Disqus
↑ Back to top | Temptations Bass for My Girl. Lyrics for acoustic guitar and electric guitar. 1 Tablatures and chords are parodies/interpretations of the original songs. You may use it for private study, scholarship, research or language learning purposes only