» » »

Temptations, Just My Imagination Bass tabs (ver.2)

Artists:  A B C D E F G H I J K L M N O P Q R S T U V W X Y Z # 

Just My Imagination Bass tabs (ver.2)

Temptations Tabs
 Rating:
4/5 (4 votes)
Just My Imagination lessons Tabs too difficult? Try these video lessons and learn fast
1
                -------------------------------------------------------------------------------
	JUST MY IMAGINATION (RUNNING AWAY WITH ME) - The Temptations
-------------------------------------------------------------------------------


Intro
G|-----------|
D|-----------|
A|-3-33------|
E|-----------|

Verse/Chorus
G|-----------------------|
D|---7-5-7---7-5-7-5-7---|
A|-3-------5-------------|
E|-----------------------|

Bridge
G|------------|
D|-------5-55-|
A|-3-33-------|
E|------------|
            
Submit corrections

comments powered by Disqus
↑ Back to top | Temptations Bass for Just My Imagination. Lyrics for acoustic guitar and electric guitar. 1 Tablatures and chords are parodies/interpretations of the original songs. You may use it for private study, scholarship, research or language learning purposes only