» » »

Just My Imagination Bass tabs (ver.1)

Artists:  A B C D E F G H I J K L M N O P Q R S T U V W X Y Z # 

Just My Imagination Bass tabs (ver.1)

Temptations
Rating:
0/5 (0 votes)

Hard to play? Try these video lessons and learn fast.
                ----------------------------------------------------------------------------
----------------------------------------------------------------------------

Bass comes in at 0:02

 G|------|
 D|------| x3
 A|------|
 E|-8-88-|

 G|---------------------|
 D|---7-5-7---7-5-7-5-7-| Play this from 0:13
 A|---------5-----------| to 2:25
 E|-8-------------------|

 Then you rest from 2:26 to 2:33 

 G|------|
 D|------| x6 
 A|------|
 E|-8-88-|

 G|---------|
 D|---------| x2
 A|---------|
 E|-10-1010-|

 G|------|
 D|------| x6 
 A|------|
 E|-8-88-|

 G|---------------------|
 D|---7-5-7---7-5-7-5-7-| Fade Out
 A|---------5-----------| 
 E|-8-------------------|

============================================================================
            
Hard to play? Try these video lessons and learn fast. | Correct




comments powered by Disqus
↑ Back to top | Tablatures and chords are parodies/interpretations of the original songs. You may use it for private study, scholarship, research or language learning purposes only