» » »

Ball Of Confusion Bass tabs (ver.2)

Artists:  A B C D E F G H I J K L M N O P Q R S T U V W X Y Z # 

Ball Of Confusion Bass tabs (ver.2)

Temptations
Rating:
5/5 (2 votes)

Hard to play? Try these video lessons and learn fast.
                ----------------------------------------------------------------------------
			     BALL OF CONFUSION - Temptations
----------------------------------------------------------------------------


Tuning: Standard EADG

this is basically it,  apart from the bridge

G|--------------------------------------------------------------------------|
D|---------------------1----------------------------------------------------|
A|---0-33-0-33-0-3-1-3---0-33-0-33-0-3-1-3----------------------------------|
E|-3------------------------------------------------------------------------|

the bridge:
G|-----------2-5----4-7-----------------------------------------------------|
D|---2-5---3------5---------------------------------------------------------|
A|-3------------------------------------------------------------------------|
E|--------------------------------------------------------------------------|
            
Hard to play? Try these video lessons and learn fast. | Correct




comments powered by Disqus
↑ Back to top | Tablatures and chords are parodies/interpretations of the original songs. You may use it for private study, scholarship, research or language learning purposes only