» » »

Templar, Megatryp Tabs (ver.1)

Artists:  A B C D E F G H I J K L M N O P Q R S T U V W X Y Z # 

Megatryp Tabs (ver.1)

Templar Tabs
 Rating:
4/5 (4 votes)
Megatryp lessons Tabs too difficult? Try these video lessons and learn fast
                Megatryp- Templar
Tuning: Dropped D (DADGBe)

I can't figure out timing here, so just do whatcha like with this part:
e --------------------------
B --------------------------
G --------------------------
D -x-x-7h9--x-x-7h9--x-7/9--
A -x-x-7h9--x-x-7h9--x-7/9--
E -x-x-7h9--x-x-7h9--x-7/9--

Pre-chorus:
e ----------------------------------------------------------
B ----------------------------------------------------------
G ----------------------------------------------------------
D -9--9--7h9--0--0--2--2-2-2-----9--9--7h9--0--0--2--2-2-2--
A -9--9--7h9--0--0--2--2-2-2-----9--9--7h9--0--0--2--2-2-2--
E -9--9--7h9--0--0--2--2-2-2-----9--9--7h9--0--0--2--2-2-2--

Chorus:
e ------------------------------------------------------------------------------
B ------------------------------------------------------------------------------
G ------------9-9-9-9-9--7-7-7-7-7-------------7-7-7-7-7--9-9-9-9-9--7-7-7-7-7--
D -9-9-9-9-9--9-9-9-9-9--7-7-7-7-7--9-9-9-9-9--7-7-7-7-7--9-9-9-9-9--7-7-7-7-7--
A -9-9-9-9-9--7-7-7-7-7--5-5-5-5-5--9-9-9-9-9--5-5-5-5-5--7-7-7-7-7--5-5-5-5-5--
E -9-9-9-9-9------------------------9-9-9-9-9-----------------------------------

Final chorus:
e -----------------------------------------------------------------------
B -----------------------------------------------------------------------
G -----------------------------------------------------------------------
D -9-9-9-9--8-8-8-8--7-7-7-7--5-5-5-5--2-2-2-2-2-2-2-2--5-5-5-5-5-5-5-5--
A -9-9-9-9--8-8-8-8--7-7-7-7--5-5-5-5--2-2-2-2-2-2-2-2--5-5-5-5-5-5-5-5--
E -9-9-9-9--8-8-8-8--7-7-7-7--5-5-5-5--2-2-2-2-2-2-2-2--5-5-5-5-5-5-5-5--

Chords: D5  E5  G5  A5  A#5  B5  D5(2)  E5(2)
e       x   x   x   x    x   x     x      x
B       x   x   x   x    x   x     x      x
G       x   x   x   x    x   x     7      9
D       0   2   5   7    8   9     7      9
A       0   2   5   7    8   9     5      7
E       0   2   5   7    8   9     x      x
            
Submit corrections

comments powered by Disqus
↑ Back to top | Templar Tabs for Megatryp. Lyrics for acoustic guitar and electric guitar. Tablatures and chords are parodies/interpretations of the original songs. You may use it for private study, scholarship, research or language learning purposes only