» » »

Television, Venus Bass tabs (ver.1)

Artists:  A B C D E F G H I J K L M N O P Q R S T U V W X Y Z # 

Venus Bass tabs (ver.1)

Television Tabs
 Rating:
4.4/5 (7 votes)
Venus lessons Tabs too difficult? Try these video lessons and learn fast
1
                Listen carefully to the song, to get the rythm.

Intro
G--------------------------------|---------------------------------|
D*----3---------------------0-0-*|-----------------5-3-2-0---2-3-5-|
A*--------------------2--3------*|-3-3-3-3-3-3-3-3---------3-------|
E--1----0-1-0-1-2--3-------------|---------------------------------|

G--------------------------|
D------------------5-3-2-0-|
A-3-3-3-3-3-3-3-3----------|
E--------------------------|

Verse
G-----------------|-------------------|--------------------------------|
D----5----3-2-0-5-|----5----3-2-------|-----3--------------------0-1-2-|
A-3-----3---------|-3-----3-----3-0---|---------------------2--3-------|
E-----------------|-----------------3-|--1-----0-1-0-1-2--3------------|

G-----------------|-------------------|---------------------------------|
D----5----3-2-0-5-|----5----3-2-------|-----3------------------0--------|
A-3-----3---------|-3-----3-----3-0---|---------------------2-----------|
E-----------------|-----------------3-|--1-----0-1-0-1-2--3-------0-1-3-|

Bridge
G-----------------|-----------------|-------------5-7-|--------------|
D-------------5-7-|-------------5-7-|-0----3--5-7-----|-0--0-3-2-0---|
A-0----3--5-7-----|-0----3--5-7-----|-----------------|------------3-|
E-----------------|-----------------|-----------------|--------------|

G-----------------|-----------------|--------------|---------------------|
D-------------5-7-|-------------5-7-|-0----0----0--|---------------------|
A-0----3--5-7-----|-0----3--5-7-----|-------3----3-|---------------------|
E-----------------|-----------------|--------------|-3-3-3-3-3-3-3-3-5-3-|

Chorus
G---------------|---------------|-----------------|---------------|
D---------------|---------------|-----------------|-----------0-2-|
A--------0----0-|-2---2-0-3-0---|-----------------|-----2-3-------|
E-0----3--------|-------------0-|-1-0-1-0-1-0-1-0-|-3-------------|

G-----------|-----------------|---------------|
D-----------|-----------------|-----------0-2-|
A-------0---|-----------------|-----2--3------|
E-0---3---0-|-1-0-1-0-1-0-1-0-|-3-------------|
                                
G-----------------------------------------------------------|
D-----------------5-3-2-0---2-3-5-------------------5-3-2-0-|
A-3-3-3-3-3-3-3-3---------3--------3-3-3-3-3-3-3-3----------|
E-----------------------------------------------------------|
                                 *To Outro
Solo
G---------------0-2-|---2-4-5-4-2-|-----------9-|
D-----------0-2-----|-------------|-------------|
A-0-----0-3---------|-------------|---7----7----|
E-------------------|-------------|-0----0------|

G----9---9-7-9-7-4----|--------------5--7-|--7-7-7--9-10-9--7--|
D------------------5\-|-0----0-3-5-7------|--------------------|
A-7-------------------|-------------------|--------------------|
E---------------------|-------------------|--------------------|

G---2-----2-2---2---2----2-----2-------|----2-----2--------|
D--------------------------0-2---2-0---|-------------------|
A-0----0-----------------------------3-|-0-----0-----------|
E--------------------------------------|-------------0-1-3-|

G-----2-----2--------|-----9-----9-9-----9----9---7--4-----|
D--------------------|----------------------------------5\-|
A-0------0-----2-3-5-|-7------7-------7-----7--------------|
E--------------------|-------------------------------------|

G---------------5-7-5-|-7-7-7-7---------|
D-0----0-3-5-7--------|---------5-5-5-5-|
A---------------------|-----------------|
E---------------------|-----------------|

Outro*
G----------------------------------|---------------------------------|
D------------------5-3-2-0---2-3-5-|-----------------5-3-2-0---2-3-5-|
A-3-3-3-3-3-3-3-3----------3-------|-3-3-3-3-3-3-3-3---------3-------|
E----------------------------------|---------------------------------|

G-------------------------------------|------------------------|
D------------------5------5------5----|-5-----5-----5-3-2-0----|
A-3-3-3-3-3-3-3-3---------------------|---------------------3~-|
E--------------------3-3----3-3----3--|----3-----3-------------|
            
Submit corrections

comments powered by Disqus
↑ Back to top | Television Bass for Venus. Lyrics for acoustic guitar and electric guitar. 1 Tablatures and chords are parodies/interpretations of the original songs. You may use it for private study, scholarship, research or language learning purposes only