>
 >
Torn Curtain

Torn Curtain Bass Tabs

Television - Torn Curtain chords, tabs, tablatures, lyrics

Guitar lessons | Add/correct | Request | Top 50 tabs Artists:  A B C D E F G H I J K L M N O P Q R S T U V W X Y Z 0-9

Torn Curtain Bass Tabs – Television

CD, Sheet music, Poster

Do you like Torn Curtain? Share with your friends now
Bass Tabs
-----------------------------------------------------------------------------
			   Television - Torn Curtain
-----------------------------------------------------------------------------


Tuning: Standard

Since this is a Television song, I
think listening to it first is a
good idea.

Anyway, have fun playing, and please
leave a comment or a rating behind.

Intro:

G-|-----------------|-----------------|-----------------|-----------------|
D-|-----------------|-----------------|*----------------|----------------*|
A-|------REST-------|------REST-------|*-----REST-------|------REST------*|
E-|-----------------|-----------------|-----------------|-----------------|


Pre-Verse:

    h     e e e e q   q  q  q  h        e e e e q  q  q   e e h     e e e
G-|-----------------|-----------------|-----------------|-----------------|
D-|-----------------|----------3------|---------3--2----|-----------------|
A-|-------------5-7-|-7---------------|-----2-3-------3-|-0-3-5-----5-7-5-|
E-|-5-----5-7-8-----|----8--5---------|-1-3-------------|-----------------|

                     Verse:

    e q  q  q  e e    h     h      e    q  q  h     h     e  q  q
G-|-----------------|-----------------|-----------------|----------|
D-|-----------------|*----------------|-------------7\--|----7--5-*|
A-|-3-5--3--0--7----|*-------7/-------|-7--5--5---------|-5\------*|
E-|--------------8--|-5------------5\-|-----------------|----------|

Chorus:

    q  q  q  q  q  q  q  q    q  q  q  q  h     q  q   q  q  q q q  q q  q
G-|------------------------|-------------------------|----------------------|
D-|------------------------|*-------4-----2----------|---------4------4----*|
A-|----0--2--3-----2--3--5-|*-2--2-----5--------2----|-------4-----------4-*|
E-|-0-----------4----------|-----------------------3-|-2--2------2--2-------|

Bridge:

    w                 w                 w                 w
G-|-----------------|-----------------|-----------------|-----------------|
D-|-5---------------|-----------------|-----------------|-----------------|
A-|-----------------|-5---------------|-7---------------|-2---------------|
E-|-----------------|-----------------|-----------------|-----------------|

    w                 h       e e e
G-|-----------------|-----------------|
D-|-----------------|-3-----x-2-3-5---|
A-|-3---------------|-----------------|
E-|-----------------|-----------------|

Play the pre-verse, verse, chorus
and bridge one more time.

Then play the solo.

Solo:

    h    q  q  q  q  q  h     q  h    q  q  q  q  q   q  q  q  q  q  h    q
G-|-----------------------|-------------------------|-----------------------|
D-|-----------------------|-----------9-------------|-----------------------|
A-|------------------7----|------7-------7--7-----2/|-7--7-----2/-7-------8-|
E-|-6----6--0--0--0-----7-|---7----------------0----|-------0--------6------|

    q  e     e   q  q  q  e   e q  q  q  q  e e  q   q
G-|-------------------------|--------------------10-----|
D-|-------------------------|---9-----9-------10-----10-|
A-|-----------------7-------|-9----9-----8--8-----------|
E-|-6--0-x-x-0-x-7-----7--7-|---------------------------|

    q   q  q    q  q  q  q   q  q  q  q  q   q  q  q  e e q
G-|-10---------------------|---------------|----------------|
D-|------------------------|---------------|----------------|
A-|-----7-----x-7--7--7----|-7-----8--8--8-|-8--8--8--8-7---|
E-|--------0-------------0-|----0----------|--------------7-|

Now play the verse, chorus and bridge.

Play the outro for the rest of the song.

Outro:

     q  q  q  q  h     q  q   q  q  q  q  q  q  q  q
G-|-------------------------|-------------------------|
D-|*-------4-----2----------|----------4--------4----*|
A-|*-2--2-----5--------2----|-------4--------------4-*|
E-|-----------------------3-|-2--2--------2--2--------|

That's it!

| e  8the note
| q  Quarter note
| h  Half note
| w  Whole note
| /  Slide up
| \  Slide down
| x  Mute note
=============================================================================





Comments


Popular Television tabs & chords
Carried Away Bass Tabs
Friction Bass Tabs
Marquee Moon Bass Tabs
Venus Bass Tabs
Elevation Tabs
Glory 1 Tabs
Marquee Moon 3 Tabs
Prove It Tabs
Torn Curtain Intro Tabs
Venus Tabs


Song lyrics



↑ Back to top | Tablatures and chords are parodies/interpretations of the original songs. You may use it for private study, scholarship, research or language learning purposes only
© 2014 AZChords.com Contact us | Privacy policy | DMCA | Add/correct tabs | Request tabs | Top 50 tabs