» » »

Television, The Fire Bass tabs (ver.1)

Artists:  A B C D E F G H I J K L M N O P Q R S T U V W X Y Z # 

The Fire Bass tabs (ver.1)

Television Tabs
 Rating:
4/5 (4 votes)
The Fire lessons Tabs too difficult? Try these video lessons and learn fast
1
                Television
Bass Tab


Once you get the rhythm, this is actually pretty easy and fun to play.
Not as complicated as it may first appear anyhow.

Intro

|---------------------------------------------------------------------|
|---------------------------------------------------------------------|
|-3--------------------------------------------------5----------------|
|------------------5----------------7---------------------------------|

Main Part

|-----------------------|
|-2------------4-5----0-|
|-------------------2---|
|---00--0---------------| x3

|-2------------4-5--2-0------4--4------9-8--5-------------------------|
|--------------------------4--------------------2------------4-5----0-|
|---00--0----------------2----------------------------------------2---|
|-------------------------------------------------00--0---------------|

|-------------------------2----------------------------4-4------9-8--5-------------------------|
|-2-------------4-5----0--------------5--------------4--------------------2---------------2--4-|
|--------------------2------00--0-------00-0---0-2---------------------------------------------|
|---00--0-------------------------------------------------------------------00--0--------------|

|------------------------------------------------------------------------------------------|
|-5----5----5----------3----3----3----3--5--7---------7----7--9--109---------x9--7--5--4---|
|----------------5--7----------------------------7----------------------9------------------|
|------------------------------------------------------------------------------------------|

|------------------------2-------------4-5--2-0------4-4---9-8---5-4----|
|-2------------4-5----0----------------------------4--------------------|
|-------------------2------00--0-----------------2----------------------|
|---00--0---------------------------------------------------------------|

|----------------------------------------------------------------------|
|----------------------------------------------------------------------|
|-3--------------------------------------------------5---------------2-|
|------------------5----------------7----------------------------------|

|------------------------2------------4-5--2-0------4--4---9-8---5-4---------------------------|
|-2------------4-5----0---------------------------4----------------------2------------4-5----0-|
|-------------------2------00--0----------------2-----------------------2------------------2---|
|---00--0------------------------------------------------------------------00--0---------------|x2

|-------------------------2-----------------------------4-4---9-8---5-4--------------------------|
|-2-------------4-5----0--------------5---------------4---------------------2---------------2--4-|
|--------------------2------00--0-------00-0---0-2--2----------------------2---------------------|
|---00--0---------------------------------------------------------------------00--0--------------|

|-----------------------------------------------------------------------------|
|-5----5----5----------3----3----3----3--5--x7---------7----7--9--109---------|
|----------------5--7-----------------------------7----------------------9----|
|-----------------------------------------------------------------------------|

|-------------------------------------------------------------------------------------|
|-5----5----5----5--4--3----3----3----3--5--7---------7----7--9--109---------9--------|
|------------------------------------------------7----------------------9-------------|
|-------------------------------------------------------------------------------------|

|------------------------2-------------4-5--2-0------4-4---9-8---5-4----|
|-2------------4-5----0----------------------------4--------------------|
|-------------------2------00--0-----------------2----------------------|
|---00--0---------------------------------------------------------------|

|----------------------------------------------------------------------|
|----------------------------------------------------------------------|
|-3--------------------------------------------------5---------------2-|
|------------------5----------------7----------------------------------|

Solo

|------------------------2------------4-5--2-0------4--4---9-8---5-4---------------------------|
|-2------------4-5----0---------------------------4----------------------2------------4-5----0-|
|-------------------2------00--0----------------2-----------------------2------------------2---|
|---00--0------------------------------------------------------------------00--0---------------|

|------------------------2------------4-5--2-0------4--4---9-8---5-4-----------------------2-4-|
|-2------------4-5----0---------------------------4----------------------2----------4-5--5-----|
|-------------------2------00--0----------------2-----------------------2----------------------|
|---00--0------------------------------------------------------------------00--0---------------|

|-------------------------2----------------------------4-4---9-8---5-4-------------------------|
|-2-------------4-5----0--------------5--------------4---------------------2----------4-5----0-|
|--------------------2------00--0-------00----0-2--2----------------------2----------------2---|
|---00--0--------------------------------------------------------------------00--0-------------|

|------------------------2------------4-5--2-0------4--4---9-8---5-4---------------------------|
|-2------------4-5----0---------------------------4----------------------2---------------------|
|-------------------2------00--0----------------2-----------------------2----------------------|
|---00--0------------------------------------------------------------------00--0------0-0--0-0-|

|------------------------2---------------2-0------4--4---9-8---5-4---------------------------|
|-2------------4-5----0-------------------------4----------------------2------------4-5----0-|
|-------------------2------00--0--------------2-----------------------2------------------2---|
|---00--0----------------------------------------------------------------00--0---------------|

|------------------------2------------4-5--2-0------4--4---9-8---5-4---2-0-|
|-2------------4-5----0---------------------------4------------------------|
|-------------------2------00--0----------------2--------------------------|
|---00--0------------------------------------------------------------------|

Ending

|--------------------------------------10-----------------|
|-5----5----5-----------------------10-----3-5--7---------|
|----------------5--7--8----8----8-------------------7----|
|---------------------------------------------------------|

|-------------------------------------|
|-7----7--9-10-9---------9--7--5-5-4--|
|-------------------9-----------------|
|-------------------------------------|

|-------------------------2-----------------------------4-4---9-8---5-4----|
|-2-------------4-5----0--------------5---------------4--------------------|
|--------------------2------00--0-------00-0---0-2--2----------------------|
|---00--0------------------------------------------------------------------|

|----------------------------|
|----------------------------|
|-3-----------------7--------|
|----------5-----------------|
            
Submit corrections

comments powered by Disqus
↑ Back to top | Television Bass for The Fire. Lyrics for acoustic guitar and electric guitar. 1 Tablatures and chords are parodies/interpretations of the original songs. You may use it for private study, scholarship, research or language learning purposes only