>
 >
The Dream's Dream

The Dream's Dream Bass Tabs

Television - The Dream's Dream chords, tabs, tablatures, lyrics

Guitar lessons | Add/correct | Request | Top 50 tabs Artists:  A B C D E F G H I J K L M N O P Q R S T U V W X Y Z 0-9

The Dream's Dream Bass Tabs – Television

CD, Sheet music, Poster

Do you like The Dream's Dream? Share with your friends now
Bass Tabs
Television (the band)
Bass Tab


This Television song is played at a slower tempo than usual,
and the strings are tightened slightly to make them sharper.

Intro [00:17]

|------------------------------------------------------------|
|------------------------------------------------------------|
|------------------------------------------------------------|
|-3---x-3-3--x-3---3-3-3--x-3---x-3-3--3/9-10-9-10-9-10-9-10-| x4

|-----------------------------------------------------|
|-----------------------------------------------------|
|-7-----7-5--4-7----7-5-4---7----7-5--4-7---777-5-4---|
|-----7-------------------7-------------------------7-|

|----------------------------------------------------------|
|-7----7-5--4-7----4-5-4-5---------7-5--4------4-5-4-5-7---|
|--------------------------5----5---------5----------------|
|----------------------------------------------------------|

|--------------------------------------|
|-077-5--4-7-----4-5-4-5-------4-5-4-5-|
|--------------5---------7---5---------|
|--------------------------------------|

Verse

|-------------------------------------------------|
|-4-5--7-5----4-5--7-5----------------------------|
|-------------------------4-5--7-5----4-5--7-5----|
|-------------------------------------------------| x7

|--------------------------------------------4-------|
|--------------------------------------4---4---7-5-4-|
|-7--7--7--5-4-7----7--5-4---------5-7---------------|
|--------------------------7----7--------------------|

|--------------------------|
|--------------------------|
|-7----7--5-4-7----7-5-----|
|----------------------7-5-|

Break

|------------------------------------------------------------|
|------------------------------------------------------------|
|------------------------------------------------------------|
|-3---x-3-3--x-3---3-3-3--x-3---x-3-3--3/9-10-9-10-9-10-9-10-| x4

|-----------------------------------------------------|
|-----------------------------------------------------|
|-7----7-5--4-7-----7-5-4---7----7-5--4-7-----7-5-4---|
|-----------------7-------7-------------------------7-|

|-----------------------------------------------------|
|-7----7-5--4-7----4-5-4-5-------7-5-4--------4-5-4-5-|
|--------------------------5---5-------5----5---------|
|-----------------------------------------------------|

|-------------------------------|
|-7----7-5--4-7----4-5-4-5------|
|--------------------------7----|
|-------------------------------|

Solo

|------------------------------------------------|
|------------------------------------------------|
|-0---0-0----0---0-0--2--5---5-5---0-5--4--2--5--|
|------------------------------------------------|

|----------------------------------------------2--|
|-5-----5-----5--4--2--5--7-----7-----7--5--4-----|
|-----5-----5-----------------7-----7-------------|
|-------------------------------------------------|

|-4-----4-----4--2--0------------------------------|
|-----4-----4----------4--2--0---------------------|
|-------------------------------4--2--0---------0--|
|----------------------------------------3--2-2----|

|-2---4-2-0---0-2---4-2-0---0-2---4-2-0---2----4-2-0---2----|
|-----------4-------------4-------------4------------4------|
|-----------------------------------------------------------|
|-----------------------------------------------------------|

|-4-2-0---2----4-2-0---2------------------------------------|
|-------4------------4--------------------------------------|
|------------------------5---5-5--7-9---------10--9--7--10--|
|-----------------------------------------------------------|

|----------------------4--------4--7--|
|-7--5--4-----------4--------5--------|
|----------------5--------7-----------|
|----------5--7-----------------------|

|-2---4-2-0---2----4-2-0---0-2---4-2-0---0-2---4-2-0---0-2---|
|-----------4------------4-------------4-------------4-------|
|------------------------------------------------------------|
|------------------------------------------------------------|

|-4-2-0---0-2---4-2-0---0-2---4-2-0---0-2---4-2-0---0-2---4-2-0---0-|
|-------4-------------4-------------4-------------4-------------4---|
|-------------------------------------------------------------------|
|-------------------------------------------------------------------|

|-------------------------------------------------|
|-------------------------------------------------|
|-------------------------------------------------|
|-2-3--2-3----2-3--2-3----2-3--2-3----2-3--2-3----| Repeat this bar til End





Comments


Popular Television tabs & chords
Foxhole Bass Tabs
See No Evil Bass Tabs
Eastenders Tabs
Elevation Tabs
Marquee Moon 1 Tabs
Mars Tabs
Rock Lobster Tabs
See No Evil Tabs
Torn Curtain Intro Tabs
Days Ukulele


Song lyrics



↑ Back to top | Tablatures and chords are parodies/interpretations of the original songs. You may use it for private study, scholarship, research or language learning purposes only
© 2014 AZChords.com Contact us | Privacy policy | DMCA | Add/correct tabs | Request tabs | Top 50 tabs