>
 >
Prove It

Prove It Bass Tabs

Television - Prove It chords, tabs, tablatures, lyrics

Guitar lessons | Add/correct | Request | Top 50 tabs Artists:  A B C D E F G H I J K L M N O P Q R S T U V W X Y Z 0-9

Prove It Bass Tabs – Television

CD, Sheet music, Poster

Do you like Prove It? Share with your friends now
Bass TabsTabs
This song is pretty easy for a Television song. It's only the solo that's kinda hard.
Listen very carefully to the song, for the rythm.

Intro
G------|------|-----|--------7-7-|-------7-7-|-------7-7-|-------7-7-----|
D------|------|-----|------------|-----------|-----------|---------------|
A------|------|-----|--0-2/5-----|-0-2/5-----|-0-2/5-----|-0-2/5----0-2/-|
E------|------|-----|------------|-----------|-----------|---------------|

Verse
G---7-7---------7-7-|-------|----4-4--------|----4-4--2-----|--------------|
D-------------------|-------|-----------h4--|-----------4-2-|--------0-2---|
A-5-----0-2/-5------|-0-5-4-|-2-------2-----|-2-------------|-----2--------|
E-------------------|-------|---------------|---------------|-3----------3-|

G---------------|----7-7-|--------7-7-------7-7-|-------7-7-|-------|
D---------2-4---|--------|----------------------|-----------|-------|
A-0----4------0-|-5------|-0-2/5------0-2/5-----|-0-2/5-----|-0-5-4-|
E---------------|--------|----------------------|-----------|-------|

G----4-4-------|---4-4--2-----|--------------|---------------|
D-----------h4-|----------4-2-|--------0-2---|---------2-4---|
A-2------2-----|-2------------|-----2--------|-0----4------0-|
E--------------|--------------|-3----------3-|---------------|

G----7-7------|----7-7-------|
D-------------|--------------|
A-5------0-2/-|-5------0-5-4-|
E-------------|--------------|

Pre-Chorus
G-----------4---2-|--|------------------|--|-----------4---2-|
D---------4---4---|--|------------------|--|---------4---4---|
A-2----5----------|--|------2-----------|--|-2----5----------|
E-----------------|--|-3--------3-3-2-0-|--|-----------------|

G---------|----------------|----------------|
D---------|----------------|----------------|
A---------|------2---------|----------------|
E---0-0-2-|-3--------3-3-2-|-h0--h0--h3--h3-|

Chorus
G---------------|---------------|---------------|---------------|
D----7----7-7-7-|----7----7-7-7-|----7----7-7-7-|----7----7-7-7-|
A---------------|---------------|---------------|---------------|
E-5----5--------|-5----5--------|-5----5--------|-5----5--------|

G----------------|---------------|-----------|---------|
D----7-----7-7-7-|----7----7-5---|-----------|-------2-|
A----------------|-------------7-|-5-5-0-5---|-0-2-4---|
E-5-----5--------|-5----5--------|-----------|---------|

G-------------|-------------|------|
D-----------0-|-----------2-|------|
A----0---2----|-0---2--4----|-0-2/-|
E-3-----------|-------------|------|

Interlude
G----7-7-------|----7-7------|----7-7------|----7-7------|
D--------------|-------------|-------------|-------------|
A-5-------0-2/-|-5------0-2/-|-5------0-2/-|-5------0-2/-|
E--------------|-------------|-------------|-------------|

Verse
G---7-7---------7-7-|-------|----4-4--------|----4-4--2-----|--------------|
D-------------------|-------|-----------h4--|-----------4-2-|--------0-2---|
A-5-----0-2/-5------|-0-5-4-|-2-------2-----|-2-------------|-----2--------|
E-------------------|-------|---------------|---------------|-3----------3-|

G---------------|----7-7-|--------7-7-------7-7-|-------7-7-|-------|
D---------2-4---|--------|----------------------|-----------|-------|
A-0----4------0-|-5------|-0-2/5------0-2/5-----|-0-2/5-----|-0-5-4-|
E---------------|--------|----------------------|-----------|-------|

G----4-4-------|---4-4--2-----|--------------|---------------|
D-----------h4-|----------4-2-|--------0-2---|---------2-4---|
A-2------2-----|-2------------|-----2--------|-0----4------0-|
E--------------|--------------|-3----------3-|---------------|

G----7-7------|----7-7-------|
D-------------|--------------|
A-5------0-2/-|-5------0-5-4-|
E-------------|--------------|

2nd Pre-Chorus
G----------4--2-|-------|--------------|-------------|----------4--2-|
D--------4--4---|-------|--------------|----------/9-|--------4--4---|
A-2----5--------|-------|-----2--------|-------------|-2----5--------|
E---------------|-----2-|--3-----3-3-2-|-0-----------|---------------|

G-----------|-------------|-----------------|
D-----------|-------------|-----------------|
A-----------|----2--------|-----------------|
E-----0-0-2-|-3-----3-3-2-|--h0--h0--h3--h3-|

2nd Chorus
G---------------|---------------|---------------|---------------|
D----7----7-7-7-|----7----7-7-7-|----7----7-7-7-|----7----7-7-7-|
A---------------|---------------|---------------|---------------|
E-5----5--------|-5----5--------|-5----5--------|-5----5--------|

G----------------|---------------|-----------|---------|
D----7-----7-7-7-|----7----7-5---|-----------|-------2-|
A----------------|-------------7-|-5-5-0-5---|-0-2-4---|
E-5-----5--------|-5----5--------|-----------|---------|

G-------------|-------------|--------|
D-----------0-|-----------2-|------0-|
A----0---2----|-0---2--4----|-0--2---|
E-3-----------|-------------|--------|

Solo
G---------------|-----------------|---------------|-----4---2-------|
D-2---2-2-----0-|--2---2-2--------|---------------|------------4--2-|
A---------0-2---|---------------0-|-2---2-2-----0-|-2---------------|
E---------------|----------0-2----|---------0-2---|-----------------|

G------------|--------------|-----------------|--------------|
D------------|--------------|-----------------|--------------|
A-----2--2/5-|-----2---5/10-|---9--9-9-----9--|--7/9-9-9---9-|
E-3----------|-3------------|------------9----|----------9---|

G----------------|------------4---|---------4----2-----|-------------|
D-2----2-2-----0-|----------4---4-|------4---------4-2-|-------------|
A----------0-2---|-2-----2--------|--2-----------------|----2--3-4-5-|
E----------------|----------------|--------------------|-3-----------|

G-----------------|-----------------|-2-2-0-2-2-0-2-2-0----|
D-----------------|-------------2-2-|--------------------2-|
A-----2-2-3-3-4-4-|-0-0-4-4-5-5-----|----------------------|
E-3-3-------------|-----------------|----------------------|

G-----7-7----9/----|----7-7---9/-----|----7-7----9/-----|-----7-7-------|
D------------------|-----------------|------------------|---------------|
A-5-------------2\-|-5------------2\-|-5-------------2\-|-5--------0-2/-|
E------------------|-----------------|------------------|---------------|

Verse
G----7-7------|----7-7--------|------4-4--------|--------4---2-----|
D-------------|---------------|--------------h4-|--------------4-2-|
A-5------0-2/-|-5-------0-5-4-|--2--------2-----|---2--------------|
E-------------|---------------|-----------------|------------------|

G---------------|----------------|-------7-7--9/----|
D---------0-2---|----------2-4---|------------------|
A------2--------|-0-----4------0-|--5------------2\-|
E--3----------3-|----------------|------------------|

G----7-7----------7-7------|----7-7--------|-----4-4------|------4--2-----|
D--------------------------|---------------|-----------h4-|-----------4-2-|
A-5------0-2/-5-------0-2/-|-5-------0-5-4-|--2------2----|--2------------|
E--------------------------|---------------|--------------|---------------|

G--------------|----------------|------7-7------|----7-7-------|
D--------0-2---|----------2-4---|---------------|--------------|
A-----2--------|-0-----4------0-|--5-------0-2/-|-5------0-5-4-|
E--3---------3-|----------------|---------------|--------------|

Pre-Chorus
G----------4--2-|-------|--------------|-------------|----------4--2-|
D--------4--4---|-------|--------------|----------/9-|--------4--4---|
A-2---5---------|-------|-----2--------|-------------|-2---5---------|
E---------------|-----2-|--3-----3-3-2-|-0-----------|---------------|

G-----------|-------------|-----------------|
D-----------|-------------|-----------------|
A-----------|----2--------|-----------------|
E-----0-0-2-|-3-----3-3-2-|--h0--h0--h3--h3-|

Chorus
G---------------|---------------|---------------|---------------|
D----7----7-7-7-|----7----7-7-7-|----7----7-7-7-|----7----7-7-7-|
A---------------|---------------|---------------|---------------|
E-5----5--------|-5----5--------|-5----5--------|-5----5--------|

G----------------|---------------|-----------|---------|
D----7-----7-7-7-|----7----7-5---|-----------|-------2-|
A----------------|-------------7-|-5-5-0-5---|-0-2-4---|
E-5-----5--------|-5----5--------|-----------|---------|

G-------------|-------------|------|
D-----------0-|-----------2-|------|
A----0---2----|-0---2--4----|-0-2/-|
E-3-----------|-------------|------|

Outro
G----7-7----/9-----|-----7-7---/9----|----7-7---/9-----|----7-7--------|
D------------------|-----------------|-----------------|---------------|
A-5-------------2/-|-5------------2/-|-5------------2/-|-5-------0-5-4-|
E------------------|-----------------|-----------------|---------------|

G-------------------|-------|------------------|-------|
D-------------------|-------|------------------|-------|
A-----2-------4-----|----/9-|------2-------4---|-------|
E-3-3---3/5-5---5-7-|-------|--3-3---3/5-5---5-|-7-----|

G-----------------|----|--------------------|
D-----------------|----|--------------------|
A-----2-------4---|----|--------------------|
E-3-3---3/5-5---5-|----|--7-----------------|





Comments


Popular Television tabs & chords
Days Bass Tabs
See No Evil Bass Tabs
See No Evil 1 Bass Tabs
Days Chords
Venus Chords
Eastenders 1 Tabs
Glory 1 Tabs
See No Evil 1 Tabs
Days Ukulele
Venus Ukulele


Song lyrics



↑ Back to top | Tablatures and chords are parodies/interpretations of the original songs. You may use it for private study, scholarship, research or language learning purposes only
© 2014 AZChords.com Contact us | Privacy policy | DMCA | Add/correct tabs | Request tabs | Top 50 tabs