>
 >
Marquee Moon

Marquee Moon Bass Tabs

Television - Marquee Moon chords, tabs, tablatures, lyrics

Guitar lessons | Add/correct | Request | Top 50 tabs Artists:  A B C D E F G H I J K L M N O P Q R S T U V W X Y Z 0-9

Marquee Moon Bass Tabs – Television

CD, Sheet music, Poster

Do you like Marquee Moon? Share with your friends now
Bass TabsTabsTabs v2Tabs v3
-----------------------------------------------------------------------------
			     Television - Marquee Moon
-----------------------------------------------------------------------------

The rythm is somewhat weird at certain parts, but other than that, it's a pretty 
forward song to play.

Please rate, or leave a comment.

Intro
G----------|--------|----------|----------|----------|----------|
D----------|--------|----------|----------|-7----7---|-7----7---|
A----------|--------|---5----5-|---5----5-|---5----5-|---5----5-|
E----------|--------|-7----7---|-7----7---|----------|----------|

Verse
G----------|----------|----------|--------------|----------|-----------------|
D----------|----------|-7----7---|-7----7-------|----------|-----------------|
A---5----5-|---5----5-|---5----5-|---5----5-2-0-|---5----5-|---5----5-2-0----|
E-7----7---|-7----7---|----------|--------------|-7----7---|-7----7----------|

G----------|--------------|----------|--------------|----------|-------------|
D-7----7---|-7----7-------|----------|--------------|-7----7---|-7----7------|
A---5----5-|---5----5-2-0-|---5----5-|---5----5-2-0-|---5----5-|---5----5----|
E----------|--------------|-7----7---|-7----7-------|----------|----------2/-|

G----------|--------------|----------|-------------|----------|--------------|
D----------|--------------|-7----7---|-7---7-------|----------|--------------|
A---5----5-|---5----5-2-0-|---5----5-|---5---5-2-0-|---5----5-|---5----5-2-0-|
E-7----7---|-7----7-------|----------|-------------|-7----7---|-7----7-------|

G----------|-------------|
D-7----7---|-7----7------|
A---5----5-|---5----5----|
E----------|----------2--|

Chorus
G------0------|-0-2-------|------2---|------0-------|-0-2--------|
D----2--------|-----------|--2-4---0-|----2---------|------------|
A-3------2-(2)|-----0-(0)-|----------|-3------2-(2)-|-----0-(0)--|
E-------------|-----------|----------|--------------|------------|

G-2-0-----|------0----0-2-|-----------------|-------------|------------|
D-----4-0-|----2----------|-----------------|-------------|------------|
A---------|-3------2------|-0-0-3-3-2-2-0-0-|-5-5-3-3-2-2-|-5-5-3-3-2--|
E---------|---------------|-----------------|-------------|------------|

G------------------|-/11-9-7-|------------------|-/11-9-7-|
D------------------|---------|------------------|---------|
A-5-h5--5-h5--5-h5-|---------|-5-h5--5-h5--5-h5-|---------|
E------------------|---------|------------------|---------|

G------------------|-/11-9-7-|-----------------|----------|------------------|
D------------------|---------|-----------------|----------|------------------|
A-5-h5--5-h5--5-h5-|---------|-10---------(10)-|---5----5-|--------5---5-2-0-|
E------------------|---------|-----------------|-7----7---|-h0-5/7---7-------|

G----------|-------------|
D-7----7---|-7----7------|
A---5----5-|---5----5----|
E----------|----------2/-|

Verse
G----------|----------|----------|--------------|----------|-----------------|
D----------|----------|-7----7---|-7----7-------|----------|-----------------|
A---5----5-|---5----5-|---5----5-|---5----5-2-0-|---5----5-|---5----5-2-0----|
E-7----7---|-7----7---|----------|--------------|-7----7---|-7----7----------|

G----------|--------------|----------|--------------|----------|-------------|
D-7----7---|-7----7-------|----------|--------------|-7----7---|-7----7------|
A---5----5-|---5----5-2-0-|---5----5-|---5----5-2-0-|---5----5-|---5----5----|
E----------|--------------|-7----7---|-7----7-------|----------|----------2/-|

G----------|--------------|----------|-------------|----------|--------------|
D----------|--------------|-7----7---|-7---7-------|----------|--------------|
A---5----5-|---5----5-2-0-|---5----5-|---5---5-2-0-|---5----5-|---5----5-2-0-|
E-7----7---|-7----7-------|----------|-------------|-7----7---|-7----7-------|

G----------|-------------|
D-7----7---|-7----7------|
A---5----5-|---5----5----|
E----------|----------2--|

Chorus
G------0------|-0-2-------|------2---|------0-------|-0-2--------|
D----2--------|-----------|--2-4---0-|----2---------|------------|
A-3------2-(2)|-----0-(0)-|----------|-3------2-(2)-|-----0-(0)--|
E-------------|-----------|----------|--------------|------------|

G-2-0-----|------0----0-2-|---------------|-------------|------------|
D-----4-0-|----2----------|---------------|-------------|------------|
A---------|-3------2------|-0-3-3-2-2-0-0-|-5-5-3-3-2-2-|-5-5-3-3-2--|
E---------|---------------|---------------|-------------|------------|

G------------------|-/11-9-7-|------------------|-/11-9-7-|
D------------------|---------|------------------|---------|
A-5-h5--5-h5--5-h5-|---------|-5-h5--5-h5--5-h5-|---------|
E------------------|---------|------------------|---------|

G------------------|-/11-9-7-|-----------------|
D------------------|---------|-----------------|
A-5-h5--5-h5--5-h5-|---------|-10---------(10)-|
E------------------|---------|-----------------|

1st Solo (With Crescendo)
G---------|------------|---------|-------------|---------|-------------------|
D-.-.-.-.-|-.-.-.------|-.-.-.-.-|-.-.---------|-.-.-.-.-|-.-.---------------|
A-5-5-5-5-|-5-5-5/7-77-|-5-5-5-5-|-5-5-5-3-----|-5-5-5-5-|-5-5-5/7-5---------|
E---------|------------|---------|---------5-3-|---------|-----------7-5--3~-|

Verse
G----------|----------|----------|--------------|----------|-----------------|
D----------|----------|-7----7---|-7----7-------|----------|-----------------|
A---5----5-|---5----5-|---5----5-|---5----5-2-0-|---5----5-|---5----5-2-0----|
E-7----7---|-7----7---|----------|--------------|-7----7---|-7----7----------|

G----------|--------------|----------|--------------|----------|-------------|
D-7----7---|-7----7-------|----------|--------------|-7----7---|-7----7------|
A---5----5-|---5----5-2-0-|---5----5-|---5----5-2-0-|---5----5-|---5----5----|
E----------|--------------|-7----7---|-7----7-------|----------|----------2/-|

G----------|--------------|----------|-------------|----------|--------------|
D----------|--------------|-7----7---|-7---7-------|----------|--------------|
A---5----5-|---5----5-2-0-|---5----5-|---5---5-2-0-|---5----5-|---5----5-2-0-|
E-7----7---|-7----7-------|----------|-------------|-7----7---|-7----7-------|

G----------|-------------|
D-7----7---|-7----7------|
A---5----5-|---5----5----|
E----------|----------2--|

Chorus
G------0------|-0-2-------|------2---|------0-------|-0-2--------|
D----2--------|-----------|--2-4---0-|----2---------|------------|
A-3------2-(2)|-----0-(0)-|----------|-3------2-(2)-|-----0-(0)--|
E-------------|-----------|----------|--------------|------------|

G-2-0-----|------0----0-2-|---------------|-------------|------------|
D-----4-0-|----2----------|---------------|-------------|------------|
A---------|-3------2------|-0-3-3-2-2-0-0-|-5-5-3-3-2-2-|-5-5-3-3-2--|
E---------|---------------|---------------|-------------|------------|

G------------------|-/11-9-7-|------------------|-/11-9-7-|
D------------------|---------|------------------|---------|
A-5-h5--5-h5--5-h5-|---------|-5-h5--5-h5--5-h5-|---------|
E------------------|---------|------------------|---------|

G------------------|-/11-9-7-|-----------------|
D------------------|---------|-----------------|
A-5-h5--5-h5--5-h5-|---------|-10---------(10)-|
E------------------|---------|-----------------|

2nd Solo
G---------------|---------|----------|----------|----------|---------------|
D---------------|---------|-7----7---|-7----7---|----------|---------------|
A-5---------(5)-|---------|---5----5-|---5----5-|---5----5-|---5----5------|
E---------------|---------|----------|----------|-7----7---|-7----7---7-5--|

G----------|--------------|----------|--------------|----------|
D-7----7---|-7----7-------|----------|--------------|-7----7---|
A---5----5-|---5----5-----|---5----5-|---5----5-----|---5----5-|
E----------|----------7-5-|-7----7---|-7----7---7-5-|----------|

G--------------|----------|--------------|----------|--------------|---------|
D-7----7-------|----------|--------------|-7----7---|-7----7-------|---------|
A---5----5-----|---5----5-|---5----5-----|---5----5-|---5----5-----|---5---5-|
E----------7-5-|-7----7---|-7----7---7-5-|----------|----------7-5-|-7---7---|

G--------------|---------|---------------|----------|---------------|
D--------------|-7---7---|-7-----7-------|----------|---------------|
A---5----5-----|---5---5-|---5-----5-----|---5----5-|----5----5-----|
E-7----7---7-5-|---------|-----------7-5-|-7----7---|-7-----7---7-5-|

G----------|---------------|----------|--------------|---------|-------------|
D-7----7---|-7-----7-------|----------|--------------|-7---7---|-7---7-------|
A---5----5-|---5-----5-----|---5----5-|---5----5-----|---5---5-|---5---5-----|
E----------|-----------7-5-|-7----7---|-7----7---7-5-|---------|---------7-5-|

G---------|---------------|----------|-------------|----------|--------------|
D---------|---------------|-7----7---|-7---7-------|----------|--------------|
A---5---5-|---5----5------|---5----5-|---5---5-----|---5----5-|---5----5-----|
E-7---7---|-7----7----7-5-|----------|---------7-5-|-7----7---|-7----7---7-5-|

G----------|--------------|----------|------------------|----------|
D-7----7---|-7----7-------|----------|------------------|-7----7---|
A---5----5-|---5----5-----|---5----5-|---5------7-9-7-5-|---5----5-|
E----------|----------7-5-|-7----7---|-7---7-5----------|----------|

G--------------|----------|--------------|----------|--------------|---------|
D-7----7-------|----------|--------------|-7----7---|-7----7-------|---------|
A---5----5-----|---5----5-|---5----5-----|---5----5-|---5----5-----|---5---5-|
E----------7-5-|-7----7---|-7----7---7-5-|----------|----------7-5-|-7---7---|

G--------------|----------|--------------|----------|--------------|---------|
D--------------|-7----7---|-7----7-------|----------|--------------|-7---7---|
A---5----5-----|---5----5-|---5----5-----|---5----5-|---5----5-----|---5---5-|
E-7----7---7-5-|----------|----------7-5-|-7----7---|-7----7---7-5-|---------|

G---------------|----------|--------------|----------|-------------|---------|
D-7----7--------|----------|--------------|-7----7---|-7---7-------|---------|
A---5----5------|---5----5-|---5----5-----|---5----5-|---5---5-----|---5---5-|
E-----------7-5-|-7----7---|-7----7---7-5-|----------|---------7-5-|-7---7---|

G-------------|----------|---------------|----------|--------------|---------|
D-------------|-7----7---|-7-----7-------|----------|--------------|-7---7---|
A---5---5-----|---5----5-|---5-----5-----|---5----5-|---5----5-----|---5---5-|
E-7---7---7-5-|----------|-----------7-5-|-7----7---|-7----7---7-5-|---------|

G--------------|----------|--------------|----------|--------------|---------|
D-7----7-------|----------|--------------|-7----7---|-7----7-------|---------|
A---5----5-----|---5----5-|---5----5-----|---5----5-|---5----5-----|---5---5-|
E----------7-5-|-7----7---|-7----7---7-5-|----------|----------7-5-|-7---7---|

G-------------|----------|--------7-7----|----------|--------------|---------|
D-------------|-7----7---|-7----7-----7/-|----------|--------------|-7---7---|
A---5---5-----|---5----5-|---5-----------|---5----5-|---5----5-----|---5---5-|
E-7---7---7-5-|----------|---------------|-7----7---|-7----7---7-5-|---------|

G--------------|---------|----------------|----------|--------7-7----|
D-7----7-------|---------|----------------|-7----7---|-7----7-----7/-|
A---5----5-----|---5---5-|---5----5-7-5---|---5----5-|---5-----------|
E----------7-5-|-7---7---|-7----7-------7-|----------|---------------|

G----------|--------------|---------|--------------|---------|---------------|
D----------|--------------|-7---7---|-7----7-------|---------|---------------|
A---5----5-|---5----5-----|---5---5-|---5----5-----|---5---5-|---5---7-7-5---|
E-7----7---|-7----7---7-5-|---------|----------7-5-|-7---7---|-7---7-------7-|

G----------|-------------|----------|--------------|---------|--------7-7----|
D-7----7---|-7---7-------|----------|--------------|-7---7---|-7----7-----7/-|
A---5----5-|---5---5-----|---5----5-|---5----5-----|---5---5-|---5-----------|
E----------|---------7-5-|-7----7---|-7----7---7-5-|---------|---------------|

G----------|----------------|----------|--------------|---------|
D----------|----------------|-7----7---|-7----7-------|---------|
A---5----5-|---5----5-7-5---|---5----5-|---5----5-----|---5---5-|
E-7----7---|-7----7-------7-|----------|----------7-5-|-7---7---|

G----------------|----------|---------7-7----|----------|--------------|
D----------------|-7----7---|-7-----7-----7/-|-7----7---|-7----7-------|
A---5----5-7-5---|---5----5-|---5------------|---5----5-|---5----5-----|
E-7----7-------7-|----------|----------------|----------|----------7-5-|

G----------|----------------|----------|--------7-7----|----------|
D----------|----------------|-7----7---|-7----7-----7/-|----------|
A---5----5-|---5----5-7-5---|---5----5-|---5-----------|---5----5-|
E-7----7---|-7----7-------7-|----------|---------------|-7----7---|

G----------------|----------|--------7-7----|----------|----------------|
D----------------|-7----7---|-7----7-----7/-|----------|----------------|
A---5----5-7-5---|---5----5-|---5-----------|---5----5-|---5----5-7-5---|
E-7----7-------7-|----------|---------------|-7----7---|-7----7-------7-|

Build Up (With Crescendo)
G--------------|--------------|--------------|--------------|---------------|
D-.-.-.--.-.-.-|-.-.-.--.-.-.-|-.-.-.--.-.-.-|-.-.-.--.-.-.-|-.-.-.--.-.-.--|
A-5-5-5--5-5-5-|-5-5-5--5-5-5-|-5-5-5--5-5-5-|-5-5-5--5-5-5-|-5-5-5--5-5-5--|
E--------------|--------------|--------------|--------------|---------------|

G--------------|--------------|-----------------|--------------|
D-.-.-.--.-.-.-|-.-.-.--.-.-.-|-.-.-.---.-7/12\-|-.-.-.--.-.-.-|
A-5-5-5--5-5-5-|-5-5-5--5-5-5-|-5-5-5-0-5-------|-5-5-5--5-5-5-|
E--------------|--------------|-----------------|--------------|

G------------7\-|--------------|--------------|-h5-7-77-h5-7-77-|
D-.-.-.--.-.----|-.-.-.--.-.-.-|-.-.-.--.-.-.-|-----------------|
A-5-5-5--5-5----|-5-5-5--5-5-5-|-5-5-5--5-5-5-|-----------------|
E---------------|--------------|--------------|-----------------|
                  Interlude
G-h5-7-77-5-------|---------------|--9--7---------------|-----------9--7-----|
D-----------7-5---|---------------|-------9-7-----------|-7/9-7-(7)-------9/-|
A---------------7-|-5---------(5)-|------------5----(5)-|--------------------|
E-----------------|---------------|---------------------|--------------------|

G-----------|-4--5-4--4-4-----|----------|--------------------|-----------|
D-----------|-------------4-4-|----------|-4-(4)---4----------|-2-----(2)-|
A-5-----(5)-|-----------------|-5----(5)-|-------5----5-(5)-5-|-----------|
E-----------|-----------------|----------|--------------------|-----------|

G-----------------|--------------------|-4-(4)-4-(4)-4-(4)-4-4-|-5---5---(5)-|
D-4--(4)--2-(2)-4-|-2--(2)-0-----------|-----------------------|-------------|
A-----------------|-----------2----(2)-|-----------------------|-------------|
E-----------------|--------------------|-----------------------|-------------|

G-5--4--2-|------------------------|-----------|---------|
D---------|------------------------|-----------|---------|
A---------|-5------------------(5)-|-----------|---------|
E---------|------------------------|-----------|---------|

G----------|--------------------|----------|--------------|
D----------|--------------------|-7----7---|-7----7-------|
A---5----5-|---------5----5-2-0-|---5----5-|---5----5-----|
E-7----7---|-h0-5/7-----7-------|----------|----------2/--|

Verse
G----------|----------|----------|--------------|----------|-----------------|
D----------|----------|-7----7---|-7----7-------|----------|-----------------|
A---5----5-|---5----5-|---5----5-|---5----5-2-0-|---5----5-|---5----5-2-0----|
E-7----7---|-7----7---|----------|--------------|-7----7---|-7----7----------|

G----------|--------------|----------|--------------|----------|-------------|
D-7----7---|-7----7-------|----------|--------------|-7----7---|-7----7------|
A---5----5-|---5----5-2-0-|---5----5-|---5----5-2-0-|---5----5-|---5----5----|
E----------|--------------|-7----7---|-7----7-------|----------|----------2/-|

G----------|--------------|----------|-------------|----------|--------------|
D----------|--------------|-7----7---|-7---7-------|----------|--------------|
A---5----5-|---5----5-2-0-|---5----5-|---5---5-2-0-|---5----5-|---5----5-2-0-|
E-7----7---|-7----7-------|----------|-------------|-7----7---|-7----7-------|

G----------|-------------|
D-7----7---|-7----7------|
A---5----5-|---5----5----|
E----------|----------2--|

Outro
G------0------|-0-2-------|------2---|------0-------|-0-2--------|
D----2--------|-----------|--2-4---0-|----2---------|------------|
A-3------2-(2)|-----0-(0)-|----------|-3------2-(2)-|-----0-(0)--|
E-------------|-----------|----------|--------------|------------|
                           *Slow down at this part*
G-2-0-----|------0----0-2-|---------------|-------------|------------|
D-----4-0-|----2----------|---------------|-------------|------------|
A---------|-3------2------|-0-3-3-2-2-0-0-|-5-5-3-3-2-2-|-5-5-3-3-2--|
E---------|---------------|---------------|-------------|------------|

G---------------------|-----------|
D---------------------|-----------|
A-h5--------------(5)-|-----------|
E---------------------|-----------|

| /  slide up
| \  slide down
| h  hammer-on
| p  pull-off
| ~  vibrato
| x  Mute note
=============================================================================





Comments


Popular Television tabs & chords
Ain't That Nothin' Bass Tabs
Days Bass Tabs
See No Evil Bass Tabs
Days Chords
1880 Or S O Tabs
Elevation Tabs
Marquee Moon 1 Tabs
Prove It Tabs
Venus 1 Tabs
Days Ukulele


Song lyrics



↑ Back to top | Tablatures and chords are parodies/interpretations of the original songs. You may use it for private study, scholarship, research or language learning purposes only
© 2014 AZChords.com Contact us | Privacy policy | DMCA | Add/correct tabs | Request tabs | Top 50 tabs