» » »

Guiding Light Bass tabs (ver.1)

Artists:  A B C D E F G H I J K L M N O P Q R S T U V W X Y Z # 

Guiding Light Bass tabs (ver.1)

Television
Rating:
0/5 (0 votes)

Tabs too difficult? Try these video lessons and learn fast.
                I'm not entirely sure, this is correct. But anyway, listen to the song for rythm. Please 
behind a rating or a comment.

Intro
G----------|----------------------------|---------------------|
D----------|---------------1/6---2------|---------------------|
A----------|-------2-2--2---------------|-2--2----------------|
E----------|-2--4-------------------2-4-|-------4-2-0----2-4--|
                                               Verse
G-----------------------|--------------|-----|---------------------|
D---------1/6----2------|--------------|-----|--------1/6--2-------|
A-2-2--2----------------|-2--2---------|-----|-2-2--2--------------|
E-------------------2-4-|-------4-2-0--|-2-4-|----------------2-4--|

G---------------------|-------------------|---------------------|
D-------------2-2-----|--------1/6--2-----|-------------2-2-----|
A-2--2----------------|-2-2--2------------|-2--2----------------|
E------4-2-0------2-4-|---------------2-4-|------4-2-0-----2-4--|

G-------------------|---------------------|----------------|----------------|
D--------1/6--2-----|-------------2-2-----|--------1/6-----|----------2-1-2-|
A-2-2--2------------|-2--2----------------|-2-2--2---------|-2-2------------|
E---------------2-4-|------4-2-0------2-4-|------------2-4-|-----4-2-0------|

Chorus
G---------------|-------------------|-------------------|-------------------|
D-4-------1-4-6-|-4---4-------1-4-6-|-4---4-------1-4-6-|-4---4-------1-4-6-|
A---4-1-2-------|-------4-1-2-------|-------4-1-2-------|-------4-1-2-------|
E---------------|-------------------|-------------------|-------------------|

G----------|--------------|---------|--------|--------10-|---10-11-11-10-|
D----------|------3---3-4-|-3-4-6-8-|-6-8-11-|-8-11-8----|-8-------------|
A--------6-|--4-6---6-----|---------|--------|-----------|---------------|
E-6--4-6---|--------------|---------|--------|-----------|---------------|
                                                     Pre-Verse
G-11-10----|-------------------|--------------------|--------------------|
D-------11-|-------------------|--------------------|--------1/6--2------|
A----------|----------11/16\11-|----------11/16\11--|-2-2--2-------------|
E----------|-9--9-9-9----------|-9--9-9-9-----------|---------------2-4--|

G--------------------|-------------------|--------------------|
D--------------------|--------1/6--2-----|--------------------|
A-2-2--2-------------|-2-2--2------------|-2-2--2-------------|
E--------4-2-0---2-4-|---------------2-4-|--------4-2-0--2-4--|

Verse
G-------------------|---------------------|-------------------|
D--------1/6--2-----|-------------2-2-----|--------1/6--2-----|
A-2-2--2------------|-2--2----------------|-2-2--2------------|
E---------------2-4-|------4-2-0------2-4-|---------------2-4-|

G---------------------|-------------------|---------------------|
D-------------2-2-----|--------1/6--2-----|-------------2-2-----|
A-2--2----------------|-2-2--2------------|-2--2----------------|
E------4-2-0------2-4-|---------------2-4-|------4-2-0------2-4-|
                                         Chorus
G--------------------|------------------|---------------|------------|
D---------1/6--2-----|------------2-1-2-|-4-------1-4-6-|-4--4-------|
A-2-2--2-------------|-2--2-------------|---4-1-2-------|------4-1-2-|
E----------------2-4-|------4-2-0-------|---------------|------------|

G-----------|------------------|----------|--------|---------|
D-1-4-6-4---|-4--4-------1-4-6-|----------|------3-|---3-4---|
A---------6-|------4-1-2-------|--------6-|--4-6---|-6-------|
E-----------|------------------|-6--4-6---|--------|---------|

G----------|----------------|-10-----10-11-11-10-11-10----|-----------|
D-3-4-6-8--|-6-8-11--8-11-8-|------8-------------------11-|-----------|
A----------|----------------|-----------------------------|-----------|
E----------|----------------|-----------------------------|-9---9-9-9-|
                                 "Guiding Light..."
G----------|--------------------|--------|--------|-------------|
D----------|--------------------|--------|--------|-------------|
A-11/16\11-|-----------11/16\11-|------9-|------9-|------9------|
E----------|-9---9-9-9----------|-7------|-7------|-7--------9--|

Solo
G-------------------|---------------------|--------------------|
D-------------------|-------------2-2-----|--------1/6--2------|
A-2-------------2---|-2--2----------------|-2-2--2-------------|
E-----4-2-0-2-4---4-|------4-2-0------2-4-|----------------2-4-|

G-------------------|-----------------|-------------------|
D-------------2-1-2-|-4---------1-4-6-|--4--4-------1-4-6-|
A-2--2--------------|-----4-1-2-------|-------4-1-2-------|
E-------4-2-0-------|-----------------|-------------------|
                         Middle Part
G-----------------------|----|-------------|--------------------|
D--4--4-------1-4-6-4-4-|----|-------------|------------2-2-----|
A-------4-1-2-----------|-h2-|---------2---|-2--4---------------|
E-----------------------|----|--0--2-4---4-|------4-2-0-----2-4-|

G--------------------|----------------------|--------------------|
D--------1/6--2------|--------------2-2-----|--------1/6--2------|
A-2-2--2-------------|-2---2----------------|-2-2--2-------------|
E----------------2-4-|-------4-2-0------2-4-|----------------2-4-|

G---------------------|-------------------|-------------------|
D-------------2-2-----|--------1/6--2-----|-------------2-1-2-|
A-2--2----------------|-2-2--2------------|-2--2--------------|
E------4-2-0------2-4-|---------------2-4-|------4-2-0--------|

Chorus
G---------------|-------------------|-------------------|-------------------|
D-4-------1-4-6-|-4---4-------1-4-6-|-4---4-------1-4-6-|-4---4-------1-4-6-|
A---4-1-2-------|-------4-1-2-------|-------4-1-2-------|-------4-1-2-------|
E---------------|-------------------|-------------------|-------------------|

G----------|-------|-------|---------|--------|--------10--|---10-11-11-|
D----------|-----3-|---3-4-|-3-4-6-8-|-6-8-11-|-8-11-8-----|-8----------|
A--------6-|-4-6---|-6-----|---------|--------|------------|------------|
E-6--4-6---|-------|-------|---------|--------|------------|------------|
                                                       "Guiding Light..."
G-10-11-10----|-------------------|-------------------|-------|--------|
D----------11-|-------------------|-------------------|-------|--------|
A-------------|----------11/16\11-|----------11/16\11-|-----9-|-----9--|
E-------------|-9--9-9-9----------|-9--9-9-9----------|-7-----|-7------|

G------------|------|--|------------------------|---------------------|
D------------|------|--|-------------1/6---2----|------------2-2------|
A------9-----|-h2---|--|------2-2--2------------|-2--2----------------|
E-7--------9-|------|--|-2-4----------------2-4-|------4-2-0------2-4-|

Outro
G--------------------|----------------------|
D*--------1/6--2-----|-------------2-2-----*|
A*-2-2--2------------|-2--2----------------*|
E----------------2-4-|------4-2-0------2-4--|
            
Tabs too difficult? Try these video lessons and learn fast.


comments powered by Disqus
↑ Back to top | Tablatures and chords are parodies/interpretations of the original songs. You may use it for private study, scholarship, research or language learning purposes only