» » »

Television, Friction Tabs (ver.1)

Artists:  A B C D E F G H I J K L M N O P Q R S T U V W X Y Z # 

Friction Tabs (ver.1)

Television Tabs
Rating:
5/5 (3 votes)
Friction lessons Tabs too difficult? Try these video lessons and learn fast
                -------------------------------------------------------------------------------
-------------------------------------------------------------------------------

Tuning: normal (E A D G B e)


intro
Guitar I
e|------------------------------------------------------------|
B|------------------------------------------------------------|
G|------------------------------------------------------------|
D|----2--2--2-----------2--2--2-------------------------------|play 2x I think
A|-------------0h1h2------------------------------------------|
E|--0--0--0------------0--0--0--2h3h4-------------------------|



Guitar II
e|---15-14-12----------------------------------------------------------------|
B|-----------15-14-12--------------------11-12b14-11-14b16-------------------|
G|--------------------15-14-12-11~-11-12-------------------------------------|
D|---------------------------------------------------------------------------|
A|---------------------------------------------------------------------------|
E|---------------------------------------------------------------------------|

Guitar I
	E			Em7			E6
e|---------------------------------------------------------0------------------|
B|-------------------------------3-----------------------2--2h3---------------|
G|------1------------------------0-----------------------1--------------------|
D|------2------------------------2-----------------------2--------------------|
A|------2------------------------2-----------------------2--------------------|
E|------0------------------------0-----------------------0--------------------|

Guitar II
e|---15-14-12-------------------------------------------------------------------------------|
B|-----------15-14-12--------------------11-12b14-11-14b16---14b16h-14b16-12-14-14b16-14b16-|
G|--------------------15-14-12-11~-11-12----------------------------------------------------|
D|------------------------------------------------------------------------------------------|
A|------------------------------------------------------------------------------------------|
E|------------------------------------------------------------------------------------------|

Guitar I
	E			Em7			E6
e|----------------------------------------------------------------------------|
B|-------------------------------3-----------------------2--------------------|
G|------1------------------------0-----------------------1--------------------|
D|------2------------------------2-----------------------2--------------------|
A|------2------------------------2-----------------------2--------------------|
E|------0------------------------0-----------------------0--------------------|


Verses

Guitar I
e|------------------------------------------------------------|
B|------------------------------------------------------------|
G|------------------------------------------------------------|
D|----2--2--2-----------2--2--2-------------------------------|play as many times as neccessary
A|-------------0h1h2------------------------------------------|
E|--0--0--0------------0--0--0--2h3h4-------------------------|

Guitar II - Pump Whammy Bar like crazy

e|--------------10--------10--10--10-----------------------------------------|
B|--10h12-10h12----10---10--10--10-------------------------------------------|
G|---------------------------------------------------------------------------|
D|---------------------------------------------------------------------------|
A|---------------------------------------------------------------------------|
E|---------------------------------------------------------------------------|

Guitar II - play very fast, while slowly bending down a half step

e|---------------------------------------------------------------------------|
B|---------------------------------------------------------------------------|
G|---------------------------------------------------------------------------|
D|---------------------------------------------------------------------------|
A|---4444444444444444444444444444444-----------------------------------------|
E|---------------------------------------------------------------------------|

Chorus

Guitars I & II
    A7                Bmaj7
e|---------------------------------------------------------------------------|
B|---2-2-x-x--2-2-x-x-4-4-x-x-4-4-x-x----------------------------------------|
G|---0-0-x-x--0-0-x-x-2-2-x-x-2-2-x-x----------------------------------------|
D|---2-2-x-x--2-2-x-x-4-4-x-x-4-4-x-x----------------------------------------|
A|---0-0-x-x--0-0-x-x-2-2-x-x-2-2-x-x----------------------------------------|
E|---------------------------------------------------------------------------|


| /  slide up
| \  slide down
| h  hammer-on
| p  pull-off
| ~  vibrato
| +  harmonic
| x  Mute note
===============================================================================
            

comments powered by Disqus
↑ Back to top | Television Tabs for Friction. Lyrics for acoustic guitar and electric guitar. Tablatures and chords are parodies/interpretations of the original songs. You may use it for private study, scholarship, research or language learning purposes only