» » »

Television, Foxhole Bass tabs (ver.1)

Artists:  A B C D E F G H I J K L M N O P Q R S T U V W X Y Z # 

Foxhole Bass tabs (ver.1)

Television Tabs
Rating:
0/5 (0 votes)
Foxhole lessons Tabs too difficult? Try these video lessons and learn fast
                Television
Bass Tab


Intro [00:07]

|-------|
|-------|
|-14\---|
|-------|

Verse Riff (x6)

|---------------2-----------------------------------------|
|-----------2h4---0-2-------------------------------------|
|-2--2--0-2-----------0---7\-2--2--0-2-----0-----0------0-|
|--------------------------------------0-2---0-2----0-2---|

Verse End

|-----------------|
|------02---------|
|-2------------0/-|
|-----------------|

Chorus

|-------------------------------------------------------|
|----------------2-2-2-2--------------------2-2-2-2-----|
|-2--0--2--0-------------5h7-2--0--2--0-------------5h7-|
|-------------0--------------------------0--------------|

|----------------------------| * Hammer fast
|----------------2-2-2-2-----|
|-2--0--2--0-------------5h7-|
|-------------0--------------|

Bridge

|-------------------------------------------------|
|-------------------------------------------------|
|-2------2-/7-----/9\-5------5/-12--12-12--12-14\-|
|-------------------------------------------------|

|-----------------------------------------------------|
|-----------------------------------------------------|
|-2------2-/7------9\-5------5/-12-12-12-12-12-12-14\-|
|-----------------------------------------------------|

Repeat Verse Riff (x3), Verse End, Chorus, Bridge

Break

|--------------7---------------------------7--------------|
|-----------79---5-7--------------------79---5-7----------|
|-7--7--5-7----------5------5-7--7--5-7----------5------5-|
|-----------------------5-7-------------------------5-7---| x4

Repeat Verse Riff (x2), Verse End, Chorus, Bridge, Verse Riff til End
            

comments powered by Disqus
↑ Back to top | Television Bass for Foxhole. Lyrics for acoustic guitar and electric guitar. Tablatures and chords are parodies/interpretations of the original songs. You may use it for private study, scholarship, research or language learning purposes only