» » »

Foxhole Tabs (ver.1)

Artists:  A B C D E F G H I J K L M N O P Q R S T U V W X Y Z # 

Foxhole Tabs (ver.1)

Television
Rating:
0/5 (0 votes)

Hard to play? Try these video lessons and learn fast.
                "Foxhole" by Television [Based on "Live at the Old Waldorf" version]
Standard Tuning (EADGBE)

Intro Riff [Play x2]

E|--------------------------------------------------------------------------|
B|--------------------------------------------------------------------------|
G|--------------------7-----------------------------------------------------|
D|----9--7--9----7s4--7-----------------------------------------------------|
A|-9--9--7--9----7s4--------------------------------------------------------|
E|-7------------------------------------------------------------------------|

Intro Solo [Played over Intro Riff: not 100% accurate and missing a bit at
the end]

E|--------------------------------------------------------------------------|
B|----------------------------------15-14-----------------------------------|
G|-14-13-------------11-13-14-13------------(17rb)16------------------------|
D|----------11-12-14--------------------------------------------------------|
A|--------------------------------------------------------------------------|
E|--------------------------------------------------------------------------|

E|--------------------------------------------------------------------------|
B|-------------14-15-14-----------------------------------------------------|
G|----13-14-16-----------16(b18r)-------------------------------------------|
D|-14-----------------------------------------------------------------------|
A|--------------------------------------------------------------------------|
E|--------------------------------------------------------------------------|

Verse [Play x8, Second guitar plays following over Intro: listen to the
recording, synchronising the two parts is tricky]

E|----------------------|
B|-12--12---------------|
G|-11--11---7---6-7-6---|
D|--------------------9-|
A|----------------------|
E|----------------------|

Chorus [Play x3]

E|--------------------------------------------------------------------------|
B|--------------------------------------------------------------------------|
G|--------------------------------------------------------------------------|
D|-9--7--9--7--2------------------------------------------------------------|
A|-9--7--9--7--2------------------------------------------------------------|
E|-7--5--7--5--0------------------------------------------------------------|

Break [Play x2: the chords are played as arpeggios (B, E, D and A) on the
recording which I can't work out exactly, listed below as 5th-string root
power chords]

E|--------------------------------------------------------------------------|
B|--------------------------------------------------------------------------|
G|-4---9---7---2------------------------------------------------------------|
D|-4---9---7---2------------------------------------------------------------|
A|-2---7---5---0------------------------------------------------------------|
E|--------------------------------------------------------------------------|

The solos are played in B Dorian Mode, I believe. If you're not familiar
with modes, you could play the solos in F# Minor Pentatonic positions;
the only difference is the root note changes from F# to B.
            
Hard to play? Try these video lessons and learn fast. | Correct




comments powered by Disqus
↑ Back to top | Tablatures and chords are parodies/interpretations of the original songs. You may use it for private study, scholarship, research or language learning purposes only