>
 >
Elavation

Elavation Bass Tabs

Television - Elavation chords, tabs, tablatures, lyrics

Guitar lessons | Add/correct | Request | Top 50 tabs Artists:  A B C D E F G H I J K L M N O P Q R S T U V W X Y Z 0-9

Elavation Bass Tabs – Television

CD, Sheet music, Poster

Do you like Elavation? Share with your friends now
Bass Tabs
Listen to the song for rythm.

Intro
G-----|-2----(2)---|-4-2-4-5-4-2-|---------|-------|--2----(2)-|-4-2-4-5-4-2-|
D-----|------------|-------------|-3---(3)-|-0-2---|-----------|-------------|
A-----|------------|-------------|---------|-----3-|-----------|-------------|
E-----|------------|-------------|---------|-------|-----------|-------------|
                                     Verse
G----------|--------------|---------|----2---(2)-|-4-2-4-5-4-2-|------------|
D-3----(3)-|-0-2----------|---------|------------|-------------|-3-----(3)--|
A----------|-----3----(3)-|---------|-0----------|-------------|------------|
E----------|--------------|-0-3-(3)-|------------|-------------|------------|

G-------------|-------|-------------|-------------|-----------|-------------|
D-0-2---------|-------|-------0-2---|-------0-2---|-3--2--0---|-3--2--0---0-|
A-----3---(3)-|-------|-0--3------3-|-0--3------3-|---------3-|---------3---|
E-------------|-0-3-4-|-------------|-------------|-----------|-------------|

G------------|------------|-----------|-------------|-----7-5---|----7-5----|
D------0-2---|------0-2---|-3--2--0---|-3--2--0-----|-0-------7-|-0------7--|
A-0--3-----3-|-0--3-----3-|---------3-|---------3-0-|-----------|-----------|
E------------|------------|-----------|-------------|-----------|-----------|

G----------|------------|----7-5---|----7-5---|------2---(2)-|-----2-2------|
D----7-5---|----7-5-----|-0------7-|-0------7-|----2---------|-2-2-----2-2--|
A-0------7-|-0------7-3-|----------|----------|-0------------|--------------|
E----------|------------|----------|----------|--------------|--------------|

Chorus
G------------|-------------------|------------|--------------|------------|
D------------|-------------------|------------|--------------|------------|
A------------|-----------h0--(0)-|----3-------|-3--------3-5-|------------|
E-3--3-3-3-3-|-3-3-3-3-3---------|-1----3-0-1-|---3-0-1------|-3--3-3-3-3-|

G---------------------|------------|-------------|------------|-----------|
D---------------------|------------|-------------|------------|-----------|
A-----------h0---(0)--|----3-------|-3-------3-5-|------------|-----------|
E-3-3-3-3-3-----------|-1----3-0-1-|---3-0-1-----|-3--3-3-3-3-|-3-3-3-3-3-|

G----------|------------|-------------|-------9----(9)-|-----9-9---|-2---(2)-|
D----------|------------|-------------|-----9----------|-9-9-----9-|---------|
A-h0---(0)-|----3-------|-3-------3-5-|----------------|-----------|---------|
E----------|-1----3-0-1-|---3-0-1-----|-0--------------|-----------|---------|
                                           Verse
G-4-2-4-5-4-2-|----------------|----------|----2---(2)-|-4-2-4-5-4-2-|-------|
D-------------|-3---(3)--0-2---|----------|------------|-------------|-3-(3)-|
A-------------|--------------3-|----------|-0----------|-------------|-------|
E-------------|----------------|-0-3--(3)-|------------|-------------|-------|

G-------------|-------|-------------|-------------|-----------|-------------|
D-0-2---------|-------|-------0-2---|-------0-2---|-3--2--0---|-3--2--0---0-|
A-----3---(3)-|-------|-0--3------3-|-0--3------3-|---------3-|---------3---|
E-------------|-0-3-4-|-------------|-------------|-----------|-------------|

G------------|------------|-----------|-------------|-----7-5---|----7-5----|
D------0-2---|------0-2---|-3--2--0---|-3--2--0-----|-0-------7-|-0------7--|
A-0--3-----3-|-0--3-----3-|---------3-|---------3-0-|-----------|-----------|
E------------|------------|-----------|-------------|-----------|-----------|

G----------|------------|----7-5---|----7-5---|------2---(2)-|-----2-2------|
D----7-5---|----7-5-----|-0------7-|-0------7-|----2---------|-2-2-----2-2--|
A-0------7-|-0------7-3-|----------|----------|-0------------|--------------|
E----------|------------|----------|----------|--------------|--------------|

Chorus
G------------|-------------------|------------|--------------|------------|
D------------|-------------------|------------|--------------|------------|
A------------|-----------h0--(0)-|----3-------|-3--------3-5-|------------|
E-3--3-3-3-3-|-3-3-3-3-3---------|-1----3-0-1-|---3-0-1------|-3--3-3-3-3-|

G---------------------|------------|-------------|------------|-----------|
D---------------------|------------|-------------|------------|-----------|
A-----------h0---(0)--|----3-------|-3-------3-5-|------------|-----------|
E-3-3-3-3-3-----------|-1----3-0-1-|---3-0-1-----|-3--3-3-3-3-|-3-3-3-3-3-|

G----------|------------|-------------|-------9----(9)-|-----9-9---|
D----------|------------|-------------|-----9----------|-9-9-----9-|
A-h0---(0)-|----3-------|-3-------3-5-|----------------|-----------|
E----------|-1----3-0-1-|---3-0-1-----|-0--------------|-----------|

Solo
G------------|-----------|-----------|-------------|------------|------------|
D-------0-2--|------0-2--|-3--2--0---|-3--2--0---0-|------0-2---|------0-2---|
A--0--3----3-|-0--3----3-|---------3-|---------3---|-0--3-----3-|-0--3-----3-|
E------------|-----------|-----------|-------------|------------|------------|

G------------|--------------|-----7-5---|----7-5---|----------|------------|
D--3--2--0---|--3--2--0---0-|-0-------7-|-0------7-|----7-5---|----7-5-----|
A----------3-|----------3---|-----------|----------|-0------7-|-0------7-3-|
E------------|--------------|-----------|----------|----------|------------|
                                              Interlude
G----7-5---|----7-5---|-----2--(2)-|----2----|-2---(2)-|-4-2-4-5-4-2-|-------|
D-0------7-|-0------7-|---2--------|-2-----2-|---------|-------------|-3-(3)-|
A----------|----------|-0----------|---------|---------|-------------|-------|
E----------|----------|------------|---------|---------|-------------|-------|

G-------|-------------|----2--(2)-|-4-2-4-5-4-2-|--------------|-------------|
D-0-2---|-------------|-----------|-------------|-3--(3)-0-2---|-------------|
A-----3-|-(3)---------|-0---------|-------------|------------3-|--(3)--0-3-0-|
E-------|-----0-3-(3)-|-----------|-------------|--------------|-------------|

G----7-5---|----7-5---|----------|------------|----7-5---|----7-5---|
D-0------7-|-0------7-|----7-5---|----7-5-----|-0------7-|-0------7-|
A----------|----------|-0------7-|-0------7-3-|----------|----------|
E----------|----------|----------|------------|----------|----------|
                             Chorus
G-----2--(2)-|------2-2-----|------------|-------------------|------------|
D---2--------|-2-2------2-2-|------------|-------------------|------------|
A-0----------|--------------|------------|-----------h0--(0)-|----3-------|
E------------|--------------|-3--3-3-3-3-|-3-3-3-3-3---------|-1----3-0-1-|

G--------------|------------|---------------------|------------|
D--------------|------------|---------------------|------------|
A-3--------3-5-|------------|-----------h0---(0)--|----3-------|
E---3-0-1------|-3--3-3-3-3-|-3-3-3-3-3-----------|-1----3-0-1-|

G-------------|------------|-----------|----------|------------|
D-------------|------------|-----------|----------|------------|
A-3-------3-5-|------------|-----------|-h0---(0)-|----3-------|
E---3-0-1-----|-3--3-3-3-3-|-3-3-3-3-3-|----------|-1----3-0-1-|
                                            Outro
G-------------|-------9----(9)-|-----9-9---|---------|-4-2-4-5-4-2-|
D-------------|-----9----------|-9-9-----9-|---------|-------------|
A-3-------3-5-|----------------|-----------|-0---(0)-|-------------|
E---3-0-1-----|-0--------------|-----------|---------|-------------|

G---------|--------------|----------|------------9--9-|-9-7-5-7-5-4-|
D-3---(3)-|-0-2----------|----------|----7--(7)-------|-------------|
A---------|-----3----(3)-|----------|-0---------------|-------------|
E---------|--------------|-0-3--(3)-|-----------------|-------------|

G-------5---5---------|-9-------------|--------------------|---------------|
D-3---3-------3---(3)-|---10-7--------|--------------------|---------------|
A---------------------|--------8--h7--|--------------(7)---|---------------|
E---------------------|---------------|--------------------|---------------|





Comments


Popular Television tabs & chords
Glory Bass Tabs
See No Evil Bass Tabs
The Dream's Dream Bass Tabs
Venus Chords
Elevation Tabs
Foxhole Tabs
Friction Tabs
Glory 1 Tabs
Little Johnny Jewel Tabs
Mars Tabs


Song lyrics



↑ Back to top | Tablatures and chords are parodies/interpretations of the original songs. You may use it for private study, scholarship, research or language learning purposes only
© 2014 AZChords.com Contact us | Privacy policy | DMCA | Add/correct tabs | Request tabs | Top 50 tabs