» » »

Eastenders Tabs (ver.2)

Artists:  A B C D E F G H I J K L M N O P Q R S T U V W X Y Z # 

Eastenders Tabs (ver.2)

Television
Rating:
4/5 (2 votes)

Hard to play? Try these video lessons and learn fast.
                                            Eastenders Theme

Tuning: E

I'm not entirely sure this tab is correct but is was playing the A Ionian scale one day
noticed the intro (0240) so I put together a rough sounding theme.
|---------------------------------------------|
|---------------------------------------------|
|---------------------------------------------|
|--------0-2-4-0--0---------------------------|
|-0-2-4-------------4-2-0-0----0-2-4-0-2------|
|----------------------------0----------------|

|---------------------------------------------|
|---------------------------------------------|
|---------------------------------------------|
|--------0-2-4-0--0--------------0-2----------|
|-0-2-4-------------4-2-0-0----4----4-2-0-----|
|----------------------------0----------------|
            
Hard to play? Try these video lessons and learn fast. | Correct




comments powered by Disqus
↑ Back to top | Tablatures and chords are parodies/interpretations of the original songs. You may use it for private study, scholarship, research or language learning purposes only