>
 >
Days

Days Bass Tabs

Television - Days chords, tabs, tablatures, lyrics

Guitar lessons | Add/correct | Request | Top 50 tabs Artists:  A B C D E F G H I J K L M N O P Q R S T U V W X Y Z 0-9

Days Bass Tabs – Television

CD, Sheet music, Poster

Do you like Days? Share with your friends now
Bass TabsChordsUkulele
Television
Bass Tab


Intro

|-----------------------------------------|
|-----------12~-----------------12~-------|
|-10~-----------------10~-----------------|
|-----------------------------------------|

|----------------------------------------------------------|
|----------------------------------------------------------|
|-5/-10---10---12\-5---5--0-2/-10---10---12\-5---5--0-2-0--|
|----------------------------------------------------------|

Verse (play twice)

|---------------------------|---------------------------|
|-----------------/4--2-0-2-|-----------------/4--2-0-2-|
|--------0-2-0-5------------|--------0-2-0-5------------|
|-3---3---------------------|-3---3---------------------|

|---------------------------|------------------------------|
|-----------------/4--2-0-2-|------------------------------|
|--------0-2-0-5------------|-7---7-7-5--------------------|
|-3---3---------------------|-----------7--5-5-5-5-5-0-2-0-|

Chorus

|-----------------------------|-----------------------------|
|---------4-2-0-----------2---|---------4-2-0-----------2---|
|-2---2-2-------0---0-0-4---0-|-2---2-2-------0---0-0-4---0-|
|-----------------------------|-----------------------------|

|-----------------------------|--------------|
|---------4-2-0-----------2---|--------------|
|-2---2-2-------0---0-0-4---0-|-7---7-7-5----|
|-----------------------------|-----------7--|

Solo

|------------------------------------------------------|
|------------------------------------------------------|
|-----2--2--2-4-2-4-5--7--7-----2----2-4-2-4-5--7-7-7--|
|-5-------------------------5--------------------------|

|------------------------------------------------------|
|------------------5~----------------5~-------12~------|
|-----2----2-4-2-4-------------------------------------|
|-5----------------------------------------------------|

|----------------------------------------------------------|
|----------------------------------------------------------|
|-5/-10---10---12\-5---5--0-2/-10---10---12\-5---5--0-2-0--|
|----------------------------------------------------------|

Verse

|---------------------------|---------------------------|
|-----------------/4--2-0-2-|-----------------/4--2-0-2-|
|--------0-2-0-5------------|--------0-2-0-5------------|
|-3---3---------------------|-3---3---------------------|

|---------------------------|------------------------------|
|-----------------/4--2-0-2-|------------------------------|
|--------0-2-0-5------------|-7---7-7-5--------------------|
|-3---3---------------------|-----------7--5-5-5-5-5-0-2-0-|

Chorus

|-----------------------------|-----------------------------|
|---------4-2-0-----------2---|---------4-2-0-----------2---|
|-2---2-2-------0---0-0-4---0-|-2---2-2-------0---0-0-4---0-|
|-----------------------------|-----------------------------|

|-----------------------------|--------------|
|---------4-2-0-----------2---|--------------|
|-2---2-2-------0---0-0-4---0-|-7---7-7-5----|
|-----------------------------|-----------7--|

Solo

|-------------------------------------------------------|
|-------------------------------------------------------|
|-----2----2-4-2-4-5--7-7-7------2----2-4-2-4-5--7-7-7--|
|-5-------------------------5---------------------------|

|------------------------------------------------------------|
|-----------------/5~----------------5~-------12---/12/12----|
|-----2----2-4-2-4----------------------------------------12-|
|-5----------------------------------------------------------|

|-----------------------------|
|-----------------------------|
|-10---10---12\-5---5--5-7-9--|
|-----------------------------|

Ending

|-----------------------------------------------------------|
|-----------------------------------------------------------|
|-10---10--10-12\-5--/9--7-5-7-10---10--10-12\-5--/9--7-5-7-|
|-----------------------------------------------------------| Repeat until fade





Comments


Popular Television tabs & chords
Prove It Bass Tabs
See No Evil 1 Bass Tabs
The Dream's Dream Bass Tabs
The Fire Bass Tabs
Torn Curtain Bass Tabs
Venus Chords
Eastenders 1 Tabs
Elevation Tabs
Venus 1 Tabs
Days Ukulele


Song lyrics



↑ Back to top | Tablatures and chords are parodies/interpretations of the original songs. You may use it for private study, scholarship, research or language learning purposes only
© 2014 AZChords.com Contact us | Privacy policy | DMCA | Add/correct tabs | Request tabs | Top 50 tabs