» » »

Television, Carried Away Bass tabs (ver.1)

Artists:  A B C D E F G H I J K L M N O P Q R S T U V W X Y Z # 

Carried Away Bass tabs (ver.1)

Television Tabs
 Rating:
4/5 (4 votes)
Carried Away lessons Tabs too difficult? Try these video lessons and learn fast
                Television
Bass Tab


Intro

|-------------------------------------|
|-------------------------------------|
|-0----------------0--------------2-4-|
|-------------------------------------|

Verse

|-------------------------------------------------|
|------------4----4-2----------------4----4-2-----|
|-0------2-4----------4-2-0------2-4----------4-2-|
|-------------------------------------------------| x3
 
|-----------------------------------------------|
|------------4---------------------4----4-2-----|
|-0------2-4--------4-2-0------2-4----------4-2-|
|-----------------------------------------------|

|-------------------------------------------------|
|------------4----4-2----------------4----4-2-----|
|-0------2-4----------4-2-0------2-4----------4-2-|
|-------------------------------------------------|

|-------------------------------------------------|
|------------4----4-2----------------4----4-2-----|
|-0------2-4----------4-2-0------2-4----------4-0-|
|-------------------------------------------------|

|--------------------------------------------------|
|--------4-3-2--2--2--------------4-3-2----2-------|
|-2------------------4-2-0-2-----------------4-2-0-|
|--------------------------------------------------|

Chorus

|------------------------------------------|
|------------------------------------------|
|-5----5----5----5----5----5----5----5--7--|
|------------------------------------------|

Verse 

|-------------------------------------------------|
|------------4----4-2----------------4----4-2-----|
|-0------2-4----------4-2-0------2-4----------4-2-|
|-------------------------------------------------| x3

|-------------------------------------------------|
|------------4----4-2----------------4----4-2-----|
|-0------2-4----------4-2-0------2-4----------4-0-|
|-------------------------------------------------|

|-------------------------------------------------|
|--------4-3-2----2--------------4-3-2----2-------|
|-2-----------------4-2-0-2-----------------4-2-0-|
|-------------------------------------------------|

Chorus

|------------------------------------------|
|------------------------------------------|
|-5----5----5----5----5----5----5----5--7--|
|------------------------------------------|

Bridge

|------------------------------------------------------------------------|
|------------------------------------------------------5-5---5--5----5-5-|
|--------0-2------------2-------2-4---------2--------5-----5-------5-----|
|-3----------0----0-2-4-------------4----4----4-3------------------------|

|-----------------------------------------------------------------------|
|-----------------------------------------------------5-5---5--5----5-5-|
|--------0-2------------2-------2-4---------2-------5-----5-------5-----|
|-3----------0----0-2-4-------------4----4----4-------------------------|

Verse

|--------2-2----------------------------------------|
|------2-----2-4----4-2----------------4----4-2-----|
|-0---------------------4-2-0------2-4----------4-2-|
|---------------------------------------------------|

|-------------------------------------------------|
|------------4----4-2----------------4----4-2-----|
|-0------2-4----------4-2-0------2-4----------4-0-|
|-------------------------------------------------|

|------------------------------------------------|
|--------4-3-2----2--------------4-3-2----2------|
|-2-----------------4-2-0-2-----------------4-2--|
|------------------------------------------------|

Chorus

|------------------------------------------|
|------------------------------------------|
|-5----5----5----5----5----5----5----5--7--|
|------------------------------------------| (then rest for two bars)

|---------------------------------------|
|-------------------------------4-2-----|
|-0----------------0----------------4-2-|
|---------------------------------------|

Ending (repeat til fade)

|--------------------------------------------------|
|------------4----4-2----------------------4-2-----|
|-0------2-4----------4-2-0------2-4-----------4-2-|
|------------------------------------2----2--------|

|--------------------------------------------------|
|------------4----4-2----------------------4-2-----|
|-0------2-4----------4-2-0------2-4-----------4-2-|
|------------------------------------2--2----------|
            
Submit corrections

comments powered by Disqus
↑ Back to top | Television Bass for Carried Away. Lyrics for acoustic guitar and electric guitar. Tablatures and chords are parodies/interpretations of the original songs. You may use it for private study, scholarship, research or language learning purposes only