>
 >
Careful

Careful Bass Tabs

Television - Careful chords, tabs, tablatures, lyrics

Guitar lessons | Add/correct | Request | Top 50 tabs Artists:  A B C D E F G H I J K L M N O P Q R S T U V W X Y Z 0-9

Careful Bass Tabs – Television

CD, Sheet music, Poster

Do you like Careful? Share with your friends now
Bass Tabs
Television
Bass Tab


Verse

|-------------------------------------------------|
|-------------------------------------------------|
|-7--7--7-----7--7--7-----0--0--0-x9-----4--------|
|---------x9----------x9--------------5-----5--4--|

|------------------------------------------------|
|-----/4--2--------------------------------------|
|---------------------4--2--4--6--7--4--6--7--9\-|
|-2----------2--4--5-----------------------------|

|----6-66-4---------------------------------------|
|----------6-----------6--4--4-/2-----4--4--4-2---|
|-4-----------4--6--7--------------4-----------4--|
|-------------------------------------------------|

Chorus

|-----------------------------------------------|
|-----------------------------------------------|
|-4--4--2--2--------------4----2----------------|
|-------------0--0--0--0------------0--0--0--0--|

|-------------------------|
|-------------------------|
|-4--4--4--4--2--2--2--2--|
|-------------------------|

Verse

|-------------------------|
|-------------------------|
|-7--7--7--7--7--7--7-77--|
|-------------------------|

|--------------------------------------------------|
|--------------------------------------------------|
|-7--7--7--7--7--7--7------0--0--0-x4-----4--------|
|----------------------x9--------------5-----5--4--|

|-------------------------------------------------|
|----4--2-----------------------------------------|
|----------4-----------4--2--4--6--7--4--6--7--9\-|
|-2-----------2--4--5-----------------------------|

|----6-66-4---------------------------------------|
|----------6-----------6--4--4-/2-----4--4--4-2---|
|-4-----------4--6--7--------------4-----------4--|
|-------------------------------------------------|

Extended Chorus

|-----------------------------------------------|
|-----------------------------------------------|
|-4----2----------------4--4--2--2--------------|
|-----------0--0--0--0--------------0--0--0--0--|

|-------------------------|
|-------------------------|
|-4--4--4--4--2--2--2--2--|
|-------------------------|

|--------------------------------------------------|
|---------------/4--2--------------66---6----6--4--|
|-4-----4--------------4--------6-----6----------6-|
|----4-----4--2-----------4--4---------------------|

|-------6---------------------------------------|
|----6----------4--2------------66---6----6-4---|
|-4-------------------4------------6---------6--|
|------------2-----------4----4-----------------|

Bridge

|----------------------------4--------/6-4---|
|-----------------4-2---2---------2-------6--|
|-------7------------4-----------------------|
|-5--5-------5-------------------------------|

|-------4----------2------------------------------|
|-------------------------------------------------|
|-2--2-------2--2-------6--4--2--4--222222222222--|
|-------------------------------------------------|

Verse

|-------------------------------------------------|
|-------------------------------------------------|
|-7--7--7--7--7--7--7-x7--0--0--0-x0-----4--------|
|-------------------------------------5-----5--4--|

|-------------------------------------------------|
|---/4--2-----------------------------------------|
|----------4-----------4--2--4--6--7--4--6--7--9\-|
|-2-----------2--4--5-----------------------------|

|----6-66-4---------------------------------------|
|----------6-----------6----/4--2--------4444-2---|
|-4-----------4--6--7--------------4-----------4--|
|-------------------------2-----------2-----------|

Chorus

|-------------------------------------------------|
|-------------------------------------------------|
|-4--4--2--2--------------4--4--2--2--------------|
|-------------0--0--0--0--------------0--0--0--0--|

|-------------------------|
|-------------------------|
|-4--4--4--4--2--2--2--2--|
|-------------------------|

Solo

|-------------------------------------------------|
|-------------------------------------------------|
|-7--7--7--7--7--7--7-x------------------4--------|
|----------------------9--5--5--5-x5-x5-----5--4--|

|-------------------------------------------------|
|----4--2-----------------------------------------|
|----------4-----------4--2--4--6-x7--4--6--7-x9\-|
|-2-----------2--4--5-----------------------------|

|----6-66-4---------------------------------------|
|----------6-----------6-----4--2--------4-44-2---|
|-4-----------4--6--7--------------4-----------4--|
|-------------------------2-----------2-----------|

Ending

|-------------------------------------------------|
|-------------------------------------------------|
|-4--4--2--2--------------4--4--2--2--------------|
|-------------0--0--0--0--------------0--0--0--0--|

|---------------------------------------------|
|---------------------------------------------|
|-4--4------2--2------4--4--2--2--------------|
|---------------------------------0--0--0--0--|

|-------------------------------------------|
|-------------------------------------------|
|-4--4--2--2--------------4--4------2--2----|
|-------------0--0--0--0--------------------|

|----------------------|
|----------------------|
|-7-7-7-7-7-7-7-7-7----|
|-0-0-0-0-0-0-0-0-0----|





Comments


Popular Television tabs & chords
Carried Away Bass Tabs
Elavation Bass Tabs
Torn Curtain Bass Tabs
Eastenders 2 Tabs
Foxhole Tabs
Marquee Moon 3 Tabs
Mars Tabs
See No Evil 1 Tabs
Venus Tabs
Venus Ukulele


Song lyrics



↑ Back to top | Tablatures and chords are parodies/interpretations of the original songs. You may use it for private study, scholarship, research or language learning purposes only
© 2014 AZChords.com Contact us | Privacy policy | DMCA | Add/correct tabs | Request tabs | Top 50 tabs