» » »

Ain't That Nothin' Bass tabs (ver.1)

Artists:  A B C D E F G H I J K L M N O P Q R S T U V W X Y Z # 

Ain't That Nothin' Bass tabs (ver.1)

Television
Rating:
0/5 (0 votes)

Hard to play? Try these video lessons and learn fast.
                Television
Bass Tab



Intro

|--------------------------------------------------------------------|
|--------------------------------------------------------------------|
|--------------------------------------------------------------------|
|-3----3-3---3----3-3---3----3-3---3----3-3---3----3-3---3----3-3--1-|

Verse

|-------------------------------------------------------------------|
|-------------------------------------------------------------------|
|-------------------------------------------------------------------|
|-3----3-3---3----3-3---3----3-3---3----3-3---3----3-3---3----3-3---|

|---------------------------------------------------------|
|---------------------------------------------------------|
|---------------------------------------------------------|
|-3----3-3---3----3-3--1-3----3-3---3----3-3---3----3-3---|

|---------------------------------------------------------|
|---------------------------------------------------------|
|---------------------------------------------------------|
|-3----3-3--1-3----3-3---3----3-3---3----3-3---3----3-3---|

|-----------------------------------------------|
|-----------------------------------------------|
|-----------------------------------------------|
|-5----5-5---5----5-5---5----5-5---3----3-3-1/3-|

Chorus
                  **
|------------------------------------------------------| **1h3 quickly, not 13
|-------------------3-3-----------------------3-3------|
|-3----3-3---3-3--13------1/3----3-3---3-3--13------1/-|
|-----------------------3-------------------------3----|

|-------------------------------------------------|
|-------------------3-3-----------------------3-3-|
|-3----3-3---3-3--13------1/3----3-3---3-3--13----|
|-----------------------3-------------------------|

Verse

|---------------------------------------------------------|
|---------------------------------------------------------|
|---------------------------------------------------------|
|-3----3-3---3----3-3--1-3----3-3---3----3-3---3----3-3---|

|-----------------------------------------------------------|
|-----------------------------------------------------------|
|-----------------------------------------------------------|
|-3----3-3--1-3----3-3---3----3-3---3----3-3---3----3-3---1-|

|---------------------------------------------|
|---------------------------------------------|
|---------------------------------------------|
|-3----3-3---3----3-3---3----3-3---3----3-3---|

|-----------------------------------------------|
|-----------------------------------------------|
|-----------------------------------------------|
|-5----5-5---5----5-5---5----5-5---3----3-3-1/3-|

Chorus

|------------------------------------------------------|
|-------------------3-3-----------------------3-3------|
|-3----3-3---3-3--13------1/3----3-3---3-3--13------1/-|
|-----------------------3-------------------------3----|

|-------------------------------------------------|
|-------------------3-3-----------------------3-3-|
|-3----3-3---3-3--13------1/3----3-3---3-3--13----|
|-----------------------3-------------------------|

Solo

|-----------------------------|
|-----------------------------|
|-5----x5-5-3-0-5----x5-5-3-0-|
|-----------------------------| x3

|----------------------------------------------------------|
|-3-/3-----/3-------/3---/3---/3---/3-/5-------------------|
|----------------------------------------------------------|
|-----------------------------------------3----------------|

Verse

|--------------------------------------------------------|
|--------------------------------------------------------|
|--------------------------------------------------------|
|-3----3-3---3----3-3---3----3-3---3----3-3--1-3---3-3---|

|---------------------------------------------------------|
|---------------------------------------------------------|
|---------------------------------------------------------|
|-3----3-3---3----3-3---3----3-3--1-3----3-3---3----3-3---|

|---------------------------------------------------------------------|
|---------------------------------------------------------------------|
|---------------------------------------------------------------------|
|-3----3-3---3----3-3---5----5-5---5----5-5---5----5-5---3----3-3-1/3-|

Chorus

|------------------------------------------------------|
|-------------------3-3-----------------------3-3------|
|-3----3-3---3-3--13------1/3----3-3---3-3--13------1/-|
|-----------------------3-------------------------3----|

|-------------------------------------------------|
|-------------------3-3-----------------------3-3-|
|-3----3-3---3-3--13------1/3----3-3---3-3--13----|
|-----------------------3-------------------------| (rest for two bars)

Solo

|-------------------------------/12----|
|-/5---------------/5------------------|
|--------------------------------------|
|--------------------------------------|

|---------------------------------------------------|
|---------------------------------------------------|
|-------------------------------------------3-2-0-3-|
|-3---3-3---3-3---3-1--1--3---3-3---3-3---3---------| x4

Ending

|-----------------------5-3---------------------------|
|------3h5-3h5------3-5----------3h5-3h5----------3-5-|
|---------------------------------------------3-5-----|
|-3------------3------------3------------3------------| x3

|-----------------------5-3------------------------------|
|------3h5-3h5------3-5----------3h5-3h5---5-3---3---3-5-|
|----------------------------------------------5---5-----|
|-3------------3------------3------------3---------------| til End
            
Hard to play? Try these video lessons and learn fast. | Correct




comments powered by Disqus
↑ Back to top | Tablatures and chords are parodies/interpretations of the original songs. You may use it for private study, scholarship, research or language learning purposes only