>
 >
Un Autre Monde

Un Autre Monde Guitar Tabs

Telephone - Un Autre Monde chords, tabs, tablatures, lyrics

Guitar lessons | Add/correct | Request | Top 50 tabs Artists:  A B C D E F G H I J K L M N O P Q R S T U V W X Y Z 0-9

Un Autre Monde Guitar Tabs – Telephone

CD, Sheet music, Poster

Do you like Un Autre Monde? Share with your friends now
ChordsTabsUkulele
Un autre monde by Téléphone


For two guitars

Enjoy!

D:xx0232
Bm:x23442
F#m:244222
G:320033
A:x02220


Intro
----- Guitar 1---------------------------------------------------------------|
e |-------0---------|-------0----------|-------0----------|-------0----------|
B |-----3---3-----3-|-----3---3-----3--|-----0---0------0-|-----0---0-----0--|
G |---2---------2---|---2---------2----|---2----------2---|---2---------2----|     (x4)
D |-0---------0-----|-0---------0------|-4----------4-----|-4---------4------|
A |-----------------|------------------|------------------|------------------|
E |-----------------|------------------|------------------|------------------|


----- Guitar 2---------------------------------------------------------------|
e |---------------|------------------|-----------------|---(7)---------------|
B |---------------|------------------|-----------------|------(7)------------|
G |---------------|--11-14/16-16/11--|---7b-7b---11----|---------(7)---------|
D |---7---9---12--|------------------|-----------------|---------------------|
A |---------------|------------------|-----------------|---------------------|
E |---------------|------------------|-----------------|---------------------|


e |---------------|------------------|---------------10|-12/14-14-12-10/9--|
B |---------------|------------------|---------10--12--|-------------------|
G |---------------|------------------|---7-9/11--------|-------------------|
D |---------------|------------------|7h9--------------|-------------------|
A |---------------|------------------|-----------------|-------------------|
E |---------------|------------------|-----------------|-------------------|

----- Guitar 1 : D - Bm - F#m - F#m (in loop)

----- Guitar 2
 D                Bm		     F#m		F#m
|10--------------|------------------|------------------|--------------|
|----------------|------------------|------------------|--------------|
|----------------|------------------|------------------|------------9-|
|----------------|------------------|------------------|---------9----|
|----------------|------------------|------------------|--------------|
|----------------|------------------|------------------|--------------|

|----------------|-------------|---------------|------------------------|
|----------------|-------------|---------------|-1512-1210-108-87-------|
|-9b11b11~~----7-|-9b11-9b11---|-9b11----------|-1411-11-9--97-77-------|
|------------9---|-------------|---------------|------------------------|
|----------------|-------------|---------------|------------------------|
|----------------|-------------|---------------|------------------------|

D       Bm              F#m       D|-------------------|-------------------|
  Je rêvais d'un autre monde      A|--------9---97----|------9---97--------|
                                  E|--------9---97----|------9---97--------|
D       Bm            F#m
  Où la Terre serait ronde
|----------------|------------|-----------|----------------|
|----------------|------------|-----------|-7--108-8-7-----|
|-7--------------|------------|-----------|-7---97-7-7-----|
|-7--------------|------------|-----------|----------------|
|----------------|------------|-----------|----------------|
|----------------|------------|-----------|----------------|
D       Bm            F#m
  Où la lune serait blonde
|------------|------------|-----------|----7--5/7----|
|------------|------------|-----------|-7--7--5/7--7-|
|------------|------------|-----------|-7----------7-|
|------------|------------|-----------|--------------|
|------------|------------|-----------|--------------|
|------------|------------|-----------|--------------|
D       Bm            A
  Et la vie serait féconde
|----------------|------------|--5--7--9-|--9-7-5------|
|----------------|------------|-3--5--7--|-7-5-3-------|
|-7--------------|------------|----------|-------------|
|-7--------------|------------|----------|-------------|
|----------------|------------|----------|-------------|
|----------------|------------|----------|-------------|


G     A                   G
  Je dormais à poings fermés
 A                      G
Je ne voyais plus mes pieds
    A           G   A
Je rêvais réalité
         D Bm F#m
Ma réalité

 D                Bm                 F#m                F#m
|----------------|------------------|-2----------------|-------------------|
|---3------------|---3--------------|-2-----------2----|-------------------|
|---2------------|---2--------------|-------------2----|-------------------|
|-4------------2h|4-----------------|------------------|----------7-------7|
|----------------|------------------|------------------|-------------------|
|----------------|------------------|------------------|-------------------|

 D                Bm                 F#m                F#m
|----------------|------7-----------|------------------|-----------------|---|
|-7-----------7--|--10--------------|-10--7------------|-----------------|---|
|-7------9-------|------------------|-----------9b11---|-9b11-9-7-9b11-9-|-7-|
|----------------|------------------|------------------|-----------------|---|
|----------------|------------------|------------------|-----------------|---|
|----------------|------------------|------------------|-----------------|---|


Je rêvais d'une autre Terre
|----------------|------------------|------------------|--------------|
|----------------|------------------|------------------|--------------|
|-7--------------|------------------|-----7-9b11-------|-------7-9b11-|
|----------------|------------------|------------------|-------7------|
|----------------|------------------|------------------|--------------|
|----------------|------------------|------------------|--------------|

Qui resterait un mystère
|----------------|------------------|----------------|-------------|
|----------------|------------------|---7---7---7----|-12--10--7-7-|
|----------------|------------------|---7---7---7----|-11---9--7---|
|----------------|------------------|----------------|-------------|
|----------------|------------------|----------------|-------------|
|----------------|------------------|----------------|-------------|

Une Terre moins terre-à-terre e|------------|-----------|
                              B|------------|-----------|
                              G|------------|--6b96-----|
Oui je voulais tout foutre en l'air

Je marchais les yeux fermés
Je ne voyais plus mes pieds
Je rêvais réalité
Ma réalité

Solo:
 D		  Bm  		     F#m                F#m
|----------------|----------------------|------------------|-------------------|
|----------------|------12--10-10b12-10-|------------------|-------------------|
|-9b11-----------|-9b11-----------------|-9b11-------------|--------9b11-9-7-9-|
|----------------|----------------------|------------------|-------------------|
|----------------|----------------------|------------------|-------------------|
|----------------|----------------------|------------------|-------------------|

 D		  Bm  		     F#m                F#m
|----------------|------------------|------------------|---------------7-7-|
|----------------|------------------|-------------7----|--7---------10-7-7-|
|-9-7------------|-9b11------7---6--|--6---------------|--6----------------|
|---------------7|-------7----------|--7---------------|-------------------|
|-----------7h9--|------------------|------------------|-------------------|
|----------------|------------------|------------------|-------------------|

 D		       Bm  	       F#m              F#m
|7/10-10/12-1210-107|75-5/7-7/10-10-|--9--------9----|--9---12-------12--|
|7/10-10/12-1210-107|75-5/7-7/10-10-|-10-------10----|-10---12-----------|
|-------------------|---------------|----------------|-------------------| 7 10 12 10 7 5 7 10
|-------------------|---------------|----------------|-------------------|
|-------------------|---------------|----------------|-------------------|
|-------------------|---------------|----------------|-------------------|

 D		      Bm  	       F#m              F#m
|-----14-14-14----14-|---------14-14--|-14/1614/1614/16|-14-14-14-12-12-10-|-10-|
|12h15---------15-15-|-15-15----------|----------------|-------------------|----|
|--------------------|----------------|----------------|-------------------|----|
|--------------------|----------------|----------------|-------------------|----|
|--------------------|----------------|----------------|-------------------|----|
|--------------------|----------------|----------------|-------------------|----|

Oui je rêvais de notre monde
Et la Terre est bien ronde  G |--------------7-|----7-9---97~-----|
                            D |------------9---|------------------|

Et la Lune est si blonde    B |----------------|---10---12-------|
                            G |----------11~~--|----9---11---11~-|

Que ce soir dansent les ombres du monde

A rêver immobile
Elle m'a trouvé bien futile
Mais quand bouger l'a faite tourner
Ma réalité m'a pardonné
							  m'a pardon-né
|--10--10---10^12-|---10--10-------|--------------|-----------------|-----|
|--10--10---------|-10----10---108|-5--5h7~~-----|-(5)-(5)---------|------|
|-----------------|----------------|--------------|---------9-7-9.-7|-----|
|-----------------|----------------|--------------|-----------------|-----|
|-----------------|----------------|--------------|-----------------|-----|
|-----------------|----------------|--------------|-----------------|-----|

						               ma réa-lité
|---------------|-------------|----------------|---------------------|-----|
|-7/10-10-108--|-7-----------|----------------|---------------------|------|
|-7/9---9--97--|-7--(6)---7-9/11---11~---11~--|-11~---11~--12~12~12~|------|
|---------------|-----7-------|----------------|---------------------|-----|
|---------------|-------------|----------------|---------------------|-----|
|---------------|-------------|----------------|---------------------|-----|

							Dansent les ombres du monde
|--------------------|-----------------|----------------|-----------------|----|
|--------------------|-----------------|---------(5)-(5)|-----5-----7~----|----|
|-12~-11----7~----12~|-11-----7~----12~|-11---6~----6---|-6-----6------6--|----|
|--------------------|-----------------|----------------|-----------------|----|
|--------------------|-----------------|----------------|-----------------|----|
|--------------------|-----------------|----------------|-----------------|----|

                Dansent les ombres du monde          Dansent les ombres du monde
|-----------------|----------------|----------------|----------------------|----|
|-----------------|----------------|----------------|----------------10-10-|----|
|--7---7---9/11---|--7---7---9/11--|--9/11~~~-------|-11-11-11-12-12-------|----|
|----9--(7)-------|----9--(7)------|-7--------------|----------------------|----|
|-----------------|----------------|----------------|----------------------|----|
|-----------------|----------------|----------------|----------------------|----|

hey!    hey!!!    danse!  danse! ...etc
|----------------|----------------|--------------|-----------------|----|
|-15-15-15-15-15-|-14-14-14--10-10|10-10-10------|-----------------|----|
|----------------|----------------|--------------|-.....etc--------|----|
|----------------|----------------|--------------|-----------------|----|
|----------------|----------------|--------------|-----------------|----|
|----------------|----------------|--------------|-----------------|----|





Comments


Popular Telephone tabs & chords
Ca Cest Vraiment Toi Bass Tabs
Ca Cest Vraiment Toi 1 Bass Tabs
Cendrillon 1 Chords
New York Avec Toi Chords
Un Autre Monde Chords
Fleur De Ma Ville Tabs
Le Bombe Humaine Tabs
Le Bombe Humaine 1 Tabs
Le Voudou Tabs
Le Voudou 1 Tabs


Song lyrics



↑ Back to top | Tablatures and chords are parodies/interpretations of the original songs. You may use it for private study, scholarship, research or language learning purposes only
© 2014 AZChords.com Contact us | Privacy policy | DMCA | Add/correct tabs | Request tabs | Top 50 tabs