» » »

Telephone, Le Bombe Humaine Tabs (ver.2)

Artists:  A B C D E F G H I J K L M N O P Q R S T U V W X Y Z # 

Le Bombe Humaine Tabs (ver.2)

Telephone Tabs
 Rating:
4/5 (4 votes)
Le Bombe Humaine lessons Tabs too difficult? Try these video lessons and learn fast
                La Bombe Humaine (live)- by Telephone
Transcibed by Frederic Maquet


This TAB transcription was created using TAB MASTER version 1.0

  Intro:
    A			    F6/A
e:--------------------------------------------------|------------|
B:--------------2-----------------------3-----------|------------|
G:--------2--------2-----2--------2--------2-----2--|--Repeat-x4-|
D:-----2-----2--------2--------3-----3--------3-----|---until----|
A:--0-----------------------0-----------------------|---next-----|
E:--------------------------------------------------|---bit------|

     F6
e:---------------------------3----------------|
B:---------------3--------------3-------------|
G:---------2--------2-----2--------2--rest----|
D:------3-----3--------3----------------------|
A:---0----------------------------------------|
E:--------------------------------------------|


    Verse:
    ------
     A	x02220		     A-ish x03220
e:-------------------------------------------------|
B:---------------2-----------------------2---------|
G:---------2--------2-----2--------2--------2-----2|
D:------2-----2--------2--------3-----3--------3---|
A:---0-----------------------0---------------------|
E:-------------------------------------------------|
  Je veux te parler          de demain..
		  de l'arme


    F#m/A x04220            A7 x05220 or x02020
e:-------------------------------------------------|
B:--------------2-----------------------2----------|
G:--------2--------2-----2--------2--------2-----2-|
D:-----4-----4--------4--------5-----5--------5----|
A:--0-----------------------0----------------------|
E:-------------------------------------------------|
    enfantee du monde       sera la fin   je veux te...
		     elle en}


           D  x00232                F  133211
e:---------------------2------------------------------------|
B:---------------3--------3-----2---------------1-----------|
G:------------2-----2--------2------------2--------2-----2--|
D:---------0---------------------------3-----3--------3-----|
A:----------------------------------3-----------------------|
E:----------------------------------------------------------|
 	    parler                de moi                  de...



    A					Asus4 x02220
e:---------------------------------------------------|
B:--------------2-----------------------3p2----------|
G:--------2--------2-----2--------2---------2-----2--|
D:-----2-----2--------2--------3-----3---------3-----|
A:--0-----------------------0------------------------|
E:---------------------------------------------------|
    toi

2nd Verse (Same chords as 1st verse):

Je vois a l'interieur des images des couleurs
Qui ne sont pas a moi qui parfois me font peur
Sensation....qui peut me rendre fou


Bridge:
-------

    E  012200 or B7?
e:--------------------------------------------------|
B:--------------0-----------------------0-----------|
G:--------1--------1-----1--------1--------1-----1--|
D:-----2-----2--------2--------2-----2--------2-----|
A:--2-----------------------2-----------------------|
E:--------------------------------------------------|
    Nos sens sont nos fils nos pauvres et malhonnetes...



   D x00232		      F  133211
e:--------------2-------------------------------------|
B:--------3--------3-----3----------------1-----------|
G:-----2-----2--------2-------------2--------2-----2--|
D:--0----------------------------3-----3--------3-----|
A:----------------------------3-----------------------|
E:----------------------------------------------------|
Nos sens sont les chemins     a nos tetes...
		   qui menent


Chorus:
-------
    A x02220                 Fmaj7  033210
e:--------------------------------------------------|------|
B:--------------2------------------------1----------|------|
G:--------2--------2-----2---------2--------2-----2-|------|
D:-----2-----2--------2---------3-----3--------3----|--x3--|
A:--0------------------------3----------------------|------|
E:--------------------------------------------------|------|
1La Bombe Humaine            dans ta main...
	        tu la tiens 
2Tu gardes le detonateur juste a cote du coeur...
3La Bombe humaine            t'appartiens...
	      cette fois elle	

    D  x00232		    F  133211
e:--------------2-----------------------------------|
B:--------3--------3-----3--------------1-----------|
G:-----2-----2--------2-----------2--------2-----2--|
D:--0--------------------------3-----3--------3-----|
A:--------------------------3-----------------------|
E:--------------------------------------------------|
  Si tu laisses quelqu'un   ton destin  c'est la..
	       prendre en main



e:---------------------------------------------------|----|
B:--------------2------------------------3-----------|----|
G:--------2--------2-----2---------2--------2-----2--|----|
D:-----2-----2--------2---------3-----3--------3-----|-x3-|
A:--0------------------------0-----------------------|----|
E:---------------------------------------------------|----|
  ..fin...      (same as intro...)
la  fin...
la fin...inhin

Back to verse...
Verse 2:

Mon père ne dort plus
Sans prendre ses calmants
Maman ne travaille plus
Sans ses excitants
Quelqu'un leur vend
De quoi tenir le coup
Je suis un électron
Bombardé de protons
Le rythme de la ville
C'est ça mon vrai patron
Je suis chargé d'électricité
Si par malheur au coeur
De l'accélérateur
J'rencontre une particule
Qui m'mette de sale humeur



In between the 3rd and 4th verse:
e:-----------------------------|
B:-----------------------------|
G:----5--7--7--7b9-5--7--5-----|
D:-7------------------------7--|
A:-----------------------------|
E:-----------------------------|


     F			    A     G# G  F
e:---1----------------------5--5-/4-/3-/1--------|
B:---1----------------------5--5-/4-/3-/1--------|
G:---2----------------------6--6-/5-/4-/2--------|
D:---3----------------------7--7-/6-/5-/3--x6ish-|
A:---3----------------------7--7-/6-/5-/3--------|
E:---1----------------------5--5-/4-/3-/1--------|
     Faudrait pas que je me laisse aller!  x6

Back to Chorus, played over and over again...^Z
-- 
Frederic Maquet
**********************
            
Submit corrections

comments powered by Disqus
↑ Back to top | Telephone Tabs for Le Bombe Humaine. Lyrics for acoustic guitar and electric guitar. Tablatures and chords are parodies/interpretations of the original songs. You may use it for private study, scholarship, research or language learning purposes only