» » »

Bonjours Le Monde Tabs (ver.1)

Artists:  A B C D E F G H I J K L M N O P Q R S T U V W X Y Z # 

Bonjours Le Monde Tabs (ver.1)

Telephone
Rating:
0/5 (0 votes)

Tabs too difficult? Try these video lessons and learn fast.
                Intro
----------------------------------------------------------------------------|
--1---1---1---1---0----0---0---0-1-1----------------------------------------|
-2-2-2-2-0-0-0-0-0-0--0-0-0-0-0----2--------x4------------------------------|
2---2---2---2---2---2----0---0-----2----------------------------------------|
----------------------------------------------------------------------------|
----------------------------------------------------------------------------|

Riff 2
-0-----0------2-----0-------------------------------------------------------|
-1-----0------3-----2-------------------------------------------------------|
-2-x12-0--x12-2-x12-2-x12-----------x4--------------------------------------|
-2-----2------0-----2-------------------------------------------------------|
-0-----2------0-----0-------------------------------------------------------|
-0-----0------0-----0-------------------------------------------------------|

Riff 3
-0-----0-----0-----0----0-----0-----0-----0-----2-----2-----2-----2-----2---|
-1---1-1--1--1---1-1--1-0---0-0--0--0---0-0--0--3---3-3--3--3---3-3--3--3---|
-2--2--2---2-2--2--2---20--0--0---0-0--0--0---0-2--2--2---2-2--2--2---2-2---|
-2-2---2-2---2-2---2-2--2-2---2-2---2-2---2-2---0-0---0-0---0-0---0-0---0---|
-0-----0-----0-----0----2-----2-----2-----2-----0-----0-----0-----0-----0---|
-0-----0-----0-----0----0-----0-----0-----0-----0-----0-----0-----0-----0---|

Riff 2
-0-----0------2-----0-------------------------------------------------------|
-1-----0------3-----2-------------------------------------------------------|
-2-x12-0--x12-2-x12-2-x12-----------x4--------------------------------------|
-2-----2------0-----2-------------------------------------------------------|
-0-----2------0-----0-------------------------------------------------------|
-0-----0------0-----0-------------------------------------------------------|


Solo

12-7-8-5-7-3-5-2-3-5-12------12-10-8-7-5----12-10-8-7-5---5-5-5-7-7-7-7-7-7-|
----------------------------------------------------------------------------|
----------------------------------------------------------------------------|
----------------------------------------------------------------------------|
----------------------------------------------------------------------------|
----------------------------------------------------------------------------|

-7-12---5-3-5-5----5-3-5-5-5------------------------------------------------|
----------------------------------------------------------------------------|
----------------------------------------------------------------------------|
----------------------------------------------------------------------------|
----------------------------------------------------------------------------|
----------------------------------------------------------------------------|


Riff final
----------------------------------------------------------------------------|
--1---1---1---1---0----0---0---0-1-1----------------------------------------|
-2-2-2-2-0-0-0-0-0-0--0-0-0-0-0----2----------------------------------------|
2---2---2---2---2---2----0---0-----2----------------------------------------|
----------------------------------------------------------------------------|
----------------------------------------------------------------------------|


FIN
            
Tabs too difficult? Try these video lessons and learn fast.




comments powered by Disqus
↑ Back to top | Tablatures and chords are parodies/interpretations of the original songs. You may use it for private study, scholarship, research or language learning purposes only