» » »

I Saw Lightning Tabs (ver.1)

Artists:  A B C D E F G H I J K L M N O P Q R S T U V W X Y Z # 

I Saw Lightning Tabs (ver.1)

Telekinesis
Rating:
5/5 (1 vote)

Tabs too difficult? Try these video lessons and learn fast.
                Capo on 2nd fret.

Verse:
E|---------------------|
B|-----1-----0-----1---|
G|-----0-----0-----2---|
D|-----2-----0-----2---|
A|--3-----2-----0------|
E|---------------------|
V|--I-----saw----------|lightning

E|--------------------|
B|-----1-----0-----3--|
G|-----0-----0-----2--|
D|-----2-----0-----2--|
A|--3-----2-----0-----|
E|--------------------|
V|--coming-from--the street

E|---------------------|
B|-----1-----0-----1---|
G|-----0-----0-----2---|
D|-----2-----0-----2---|
A|--3-----2-----0------|
E|---------------------|
V|--you---were---------|trembling

E|--------------|
B|--3--------3--|
G|--0--------0--|
D|--4--------4--|
A|--5--------5--|
E|--5--------5--|
V|--hear-your-heart beat

Chorus:
E|--3-------0--------------0--------------|
B|--3-------1--------------1----------3---|
G|--4-------2--------------0----------0---|
D|--5-------2--------------2----------4---|
A|--5-------0--------------3----------5---|
E|--3----------------------3----------5---|
V|----------------------------------------|I-wanna-care-for-you-when-you-are-all-alone...

E|--0------|
B|--1------|
G|--2------|
D|--2------|
A|--0------|
E|---------|
V|--Let's-be-in-love.
            
Tabs too difficult? Try these video lessons and learn fast.


comments powered by Disqus
↑ Back to top | Tablatures and chords are parodies/interpretations of the original songs. You may use it for private study, scholarship, research or language learning purposes only