» » »

Telekinesis, Country Lane Tabs (ver.2)

Artists:  A B C D E F G H I J K L M N O P Q R S T U V W X Y Z # 

Country Lane Tabs (ver.2)

Telekinesis Tabs
Rating:
0/5 (0 votes)
Country Lane lessons Tabs too difficult? Try these video lessons and learn fast
                Tuning: Standard

Intro

e |---------------------|
B |---------------------|
G |-5-----------------5-|
D |----3--7--3--7--5----|
A |---------------------|       
E |---------------------|

e |----------------------------------------------------------|
B |---/12--9--7--5--2--12--9--7--5--9--12--9--7--5--9--7--5--|
G |----------------------------------------------------------|
D |----------------------------------------------------------|
A |----------------------------------------------------------|  
E |----------------------------------------------------------|

Verse 1

e |---0------0------------|
B |---1------1------------|
G |---0------2------------|
D |---2------2------------|
A |---3------0------------|     
E |---x------x------------|

I wanna live on a country lane
Some place where no one knows your name

e |---0----0--------------|
B |---1----1--------------|
G |---2----0--------------|
D |---3----2--------------|
A |---3----3--------------|     
E |---x----x--------------|

And I'll forget you too (x2)

e |---0------0------------|
B |---1------1------------|
G |---0------2------------|
D |---2------2------------|
A |---3------0------------|     
E |---x------x------------|

I wanna sleep in late
I wanna start from the top
Clean my slate

e |---0----0--------------|
B |---1----1--------------|
G |---2----0--------------|
D |---3----2--------------|
A |---3----3--------------|     
E |---x----x--------------|

And I'll forget you too (x2)

Interlude

e |---------------|
B |---/12--9--5---| (x2)
G |---------------|
D |---------------|
A |---------------|     
E |---------------|

Verse 2

I believe in fate
I believe my brain can compensate
I believe its true (x2)

I can't relate
I just read through my lines
And flip the page
It's something I can't do (x2)

Interlude 


e |----------------------------------------------------------|
B |---/12--9--7--5--2--12--9--7--5--9--12--9--7--5--9--7--5--|
G |----------------------------------------------------------| (x2)
D |----------------------------------------------------------|
A |----------------------------------------------------------|  
E |----------------------------------------------------------|

Solo

e |---------------------|
B |---------------------|
G |-5-----------------5-| (x2)
D |----3--7--3--7--5----|
A |---------------------|       
E |---------------------|

e |----------------------------------------------------------|
B |---/12--9--7--5--2--12--9--7--5--9--12--9--7--5--9--7--5--|
G |----------------------------------------------------------|
D |----------------------------------------------------------|
A |----------------------------------------------------------|  
E |----------------------------------------------------------|

Verse 3

e |---0------0------------|
B |---1------1------------|
G |---0------2------------|
D |---2------3------------|
A |---3------3------------|     
E |---x------x------------|


e |----------------------------------------------------------|
B |---/12--9--7--5--2--12--9--7--5--9--12--9--7--5--9--7--5--|
G |----------------------------------------------------------|
D |----------------------------------------------------------|
A |----------------------------------------------------------|  
E |----------------------------------------------------------|


Well I believed in you
And you believed in me

e |-----0-----0---0----|
B |-----1-----1---1----|
G |-----2-----2---0----|
D |-----2-----3---2----|
A |-----0-----3---3----|        
E |-----x-----x---x----|

But I know this just happened
            

comments powered by Disqus
↑ Back to top | Telekinesis Tabs for Country Lane. Lyrics for acoustic guitar and electric guitar. Tablatures and chords are parodies/interpretations of the original songs. You may use it for private study, scholarship, research or language learning purposes only