» » »

Country Lane Bass tabs (ver.1)

Artists:  A B C D E F G H I J K L M N O P Q R S T U V W X Y Z # 

Country Lane Bass tabs (ver.1)

Telekinesis
Rating:
0/5 (0 votes)

Hard to play? Try these video lessons and learn fast.
                -----------------------------------------------------------------
-----------------------------------------------------------------
Tuning: Standard!
Intro/Outro/In Between Verses:
G|------------------------------------------------------------------|
D|------------------------------------------------------------------|
A|-3-3-3-3------------------------------------------3-3-3-3-3-3-3-3-|
E|---------1-1-1-1-5-5-5-5-1-1-1-1--5-5-5-5-1-1-1-1-----------------|

Verse:
G|-------------------------------------------------------------------------------|
D|-------------------------------------------------------------------------------|
A|---------------------------------------------3-3-3-3-3-3-3-3-3-3-3-3-3-3-3-3---|
E|-1-1-1-1-1-1-1-1-1-1-1-1-1-1-1-1-----------------------------------------------|

Woo!
            
Hard to play? Try these video lessons and learn fast. | Correct




comments powered by Disqus
↑ Back to top | Tablatures and chords are parodies/interpretations of the original songs. You may use it for private study, scholarship, research or language learning purposes only