» » »

You're The Ocean Tabs (ver.1)

Artists:  A B C D E F G H I J K L M N O P Q R S T U V W X Y Z # 

You're The Ocean Tabs (ver.1)

Teitur
Rating:
0/5 (0 votes)

Hard to play? Try these video lessons and learn fast.
                Alright, so I've been looking for the tabs for this song everywhere, but couldn't find it anywhere
but I found lots of comments saying "Got tabs for that song?" and that kind.
So I decided to tab it myself, and with a little help from my Sensei, it worked.
I can assure you that this is about 100% right, if not, you don't play it right.

Enjoy!




Tuning: D A D F# A D

AND REMEMBER CAPO ON 3rd


To get the strumming, listen to the song!


Intro/Riff:


D |-000-000-000-0-000-0-000-0-|
A |-000-222-000-0-000-0-000-0-|
F#|-000-000-777-0-000-0-000-0-|
D |-444-000-444-7-555-3-555-3-|
A |-555-222-555-x-xxx-x-xxx-x-|
D |-000-000-000-7-555-3-555-3-|


Verse:

D |-------7-(7)-----9-----------7-0------|
A |-------0-(0)-----0-----------0-0------|
F#|-----7-----------8---------5-------0--|
D |-----0----------(0)--------0----------|
A |--------------------------------------|
D |-7-7----------9------0h5-5-------0----|


Chorus:

D |-000-x-xxxxx-|
A |-000-x-xxxxx-|
F#|-000-7-555/7-|
D |-000-7-555/7-|
A |-000-x-xxxxx-|
D |-000-7-555/7-|


Bridge:

D |-000-000-000-000-000-000-000-(777)-(999)----000----0---0---0---0-|
A |-000-000-000-000-000-000-000--000---000-----000--0---0---0---0---|
F#|-444-333-111-000-000-000-000--777---888-0h1-111------------------|
D |-000-000-000-000-000-000-000--000---000-0---000-2-2-4-4-5-5-7-7--|
A |-555-444-222-555\444\222/444--xxx---xxx-0h2-222------------------|
D |-555-444-222-000-000-000-000--777---999-0h2-222------------------|
            
Hard to play? Try these video lessons and learn fast. | Correct




comments powered by Disqus
↑ Back to top | Tablatures and chords are parodies/interpretations of the original songs. You may use it for private study, scholarship, research or language learning purposes only